>
 >
For Whom The Bells Tolls

For Whom The Bells Tolls Guitar Tabs

Metallica - For Whom The Bells Tolls chords, tabs, tablatures, lyrics

Guitar lessons | Add/correct | Request | Top 50 tabs Artists:  A B C D E F G H I J K L M N O P Q R S T U V W X Y Z 0-9

For Whom The Bells Tolls Guitar Tabs – Metallica

CD, Sheet music, Poster

Do you like For Whom The Bells Tolls? Share with your friends now
TabsTabs v2
Standard Tuning

Intro:Guitar 1
e|--------------------------------------------------|
B|--------------------------------------------------|
G|--------------------------------------------------|
D|--------------------------------------------------|
A|---4-4----4-4----2~~~-----------------------------|
E|---2-2----2-2----0~~~-----------------------------|
      Guitar 2 w/wah as filter
e|---10--9--8--7------------10----------------------|
B|-------------------8--7--------7--6---\-----------|
G|--------------------------------------------------|
D|--------------------------------------------------|
A|--------------------------------------------------|
E|--------------------------------------------------|

(0:41) guitar 1 plays intro 4x


(0:57)
Guitar 1
e|--------------------------------------------------|
B|--------------------------------------------------|
G|--------------------------------------------------|
D|-----------------------------------------------2--|
A|--2--5--4--3--2--5--4--3--2--5--4--3--2--4--5--0--|
E|--0--3--2--1--0--3--2--1--0--3--2--1--0--2--3-----|
pm.............................................

Guitar 2
e|--------------------------------------------------|
B|--------------------------------------------------|
G|--4--7--6--5--4--7--6--5--4--7--6--5--4--6--7-----|
D|--2--5--4--3--2--5--4--3--2--5--4--3--2--4--5--2--|
A|-----------------------------------------------0--|
E|--------------------------------------------------|
pm..............................................

Guitar 1:continued
e|--------------------------------------------------|
B|--------------------------------------------------|
G|--------------------------------------------------|
D|-----------------------------------------------4--|
A|--2--5--4--3--2--5--4--3--2--5--4--3--2--4--5--2--|
E|--0--3--2--1--0--3--2--1--0--3--2--1--0--2--3-----|
pm..............................................

Guitar 2: continued
e|--------------------------------------------------|
B|--------------------------------------------------|
G|--4--7--6--5--4--7--6--5--4--7--6--5--4--6--7-----|
D|--2--5--4--3--2--5--4--3--2--5--4--3--2--4--5---4-|
A|------------------------------------------------2-|
E|--------------------------------------------------|
pm..............................................

(1:17)
Guitar 1
e|----------------------------------------------------------------------|
B|----------------------------------------------------------------------|
G|----------------------------------------------------------------------|
D|----------------------------------------------------------------------|
A|--2~--------------2~------------2~----------2~----------5~---------5~-|
E|--0~--------------0~------------0~----------0~----------3~---------3~-|

e|----------------------------------------------------------------------|
B|----------------------------------------------------------------------|
G|----------------------------------------------------------------------|
D|---------------------------------------------5~---------2~------------|
A|--2~--------------2~------------5~-----------3~---------0~------------|
E|--0~--------------0~------------3~------------------------------------|

(1:17)
Guitar 2
e|--------------------------------------------------|
B|--------------------------------------------------|
G|--12--9--11-------9---11---12---9---11------9--11-|
D|-------------12-------------------------12--------|
A|--------------------------------------------------|
E|--------------------------------------------------|
pm..................................................

(1:50)
e|----------------------------------------------------------------------|
B|----------------------------------------------------------------------|
G|----------------------------------------------------------------------|
D|-----------------------------------3----------------------------------|
A|--------5----------7----------5----1----4-----------5----------7------|
E|--0-0-0-3----0-0-0-5----0-0-0-3---------2-----0-0-0-3----0-0-0-5------|
pm ......     .......     ......                ......     .....

e|--------------------------------------------------|
B|--------------------------------------------------|
G|--------------------------------------------------|
D|------------------------------------3-------------|
A|--------5----------7----------5-----1--4--3-------|
E|--0-0-0-3----0-0-0-5----0-0-0-3-0-0----2--1-------|
pm........     ......     .....   ...

Verses: (2:06,3:20)
e|---------------------------------------------------------------------||
B|---------------------------------------------------------------------||
G|---------------------------------------------------------------------||
D|-----------------------------------------------------5~---------2~---||
A|---2~-----------2~------------5~----------5~---------3~---------0~---||
E|---0~-----------0~------------3~----------3~-------------------------||

e|----------------------|
B|----------------------|
G|----------------------|
D|--5------------2------|
A|--3------------0------|
E|----------------------|

Chorus:
e|----------------------------------------------------------------------------|
B|----------------------------------------------------------------------------|
G|----------------------------------------------------------------------------|
D|-----------------------------3--------------------------------------3-------|
A|-------5--------7--------5---1---4---------5--------7--------5------1--4--3-|
E|-0-0-0-3--0-0-0-5--0-0-0-3-------2---0-0-0-3--0-0-0-5--0-0-0-3-0-0-----2--1-|
pm ......  .......  ......            ......    .....    .....   ...

e|----------------------------------------------------------------------------|
B|----------------------------------------------------------------------------|
G|----------------------------------------------------------------------------|
D|-----------------------------3--------------------------------------3-------|
A|-------5--------7--------5---1---4---------5--------7--------5------1--4--3-|
E|-0-0-0-3--0-0-0-5--0-0-0-3-------2---0-0-0-3--0-0-0-5--0-0-0-3-0-0-----2--1-|
pm ......  .......  ......            ......    .....    .....   ...

Interlude: (2:55)
Guitar 1
e|-----------------------------------------------------------------------------|
B|-----------------------------------------------------------------------------|
G|-----------------------------------------------------------------------------|
D|--------------------------------------------------------------------------4~-|
A|---2~-----------2~------------2~----------5-------5-5-5-5---5-5-5--2~-----2--|
E|---0~-----------0~------------0~----------3-------3-3-3-3---3-3-3--0~--------|

Guitar 2
e|--------------------------------------------------|
B|--------------------------------------------------|
G|--12--9--11-------9---11---12---9---11------9--11-|
D|-------------12-------------------------12--------|
A|--------------------------------------------------|
E|--------------------------------------------------|
pm..................................................

Guitar 1: continued
e|----7------------------7~~~-----------7---------7---------------7-----------|
B|-------8-----10--7--8-----------------------------8---10--7--8-----8~~~-----|
G|----------9-----------------------------------------9-----------------------|
D|----------------------------------------------------------------------------|
A|----------------------------------------------------------------------------|
E|----------------------------------------------------------------------------|

Guitar 2: repeat same riff

Guitar 1: continued
e|------------------7~~-----------------------------|
B|----8---10--7--7----------------------------------|
G|--9---9-------------------------------------------|
D|--------------------------------------------------|
A|--------------------------------------------------|
E|--------------------------------------------------|

Outro: w/ad lib overdubbed trem. bar abuse
       and misc gtr. noises
e|----------------------------------------------------------|
B|----------------------------------------------------------|
G|----------------------------------------------------------|
D|--9-----------11---11------9------11-----11------12---12--|
A|--7------------9----9------7-------9------9------10---10--|
E|--0------------------------0------------------------------|





Comments


Popular Metallica tabs & chords
Anethesia Bass Tabs
Cliff Burton Memorial 1 Bass Tabs
Fight Fire With Fire 2 Bass Tabs
Mama Said Chords
Call Of Kutulu 1 Tabs
Carpe Diem Baby 2 Tabs
Escape 4 Tabs
Some Kind Of Monster 2 Tabs
The Shortest Straw 2 Tabs
The Struggle Within 1 Tabs


Song lyrics



↑ Back to top | Tablatures and chords are parodies/interpretations of the original songs. You may use it for private study, scholarship, research or language learning purposes only
© 2014 AZChords.com Contact us | Privacy policy | DMCA | Add/correct tabs | Request tabs | Top 50 tabs