>
 >
For Whom The Bells Toll

For Whom The Bells Toll Guitar Tabs

Metallica - For Whom The Bells Toll chords, tabs, tablatures, lyrics

Guitar lessons | Add/correct | Request | Top 50 tabs Artists:  A B C D E F G H I J K L M N O P Q R S T U V W X Y Z 0-9

For Whom The Bells Toll Guitar Tabs – Metallica

CD, Sheet music, Poster

Do you like For Whom The Bells Toll? Share with your friends now
Tabs
For whom the bells toll	
mike grant

==== ==== Rhythm A ==== ====
4x |-|--|-----|--|----||--------------|--|---|--|-----|--|------||------------
|-|--|-----|--|----||--------------|--|---|--|-----|--|------||------------
|-|--|--Z--|--|--Z-||.----.,;:'"':;,.-|---|--|--Z--|--|--Z--.||------------
|-4--4-----4--4----||.-(2)---------|-(2)--4--4-----4--4-----.||------------
|-4--4-----4--4----||--(2)---------|-(2)--4--4-----4--4------||------------
|-2--2-----2--2----||--(0)---------|-(0)--2--2-----2--2------||------------

(Lead over Rhythm transcribed for guitar...4x w/Rhythm A and 4x w/Rhythm B)
----- ---- -----
|-----|---|---|)-|-|-|--|---|---|--|-|-------------------------------------
|-----|---|---|--|-|-|--|---|---|--|-|-------------------------------------
|-Z---|---|---|--|-|-|--|---|---|--|-|-------------------------------------
|----12--11--10--9-|-|--|--12---|--|-|-------------------------------------
|------------------|10--9-------|--|-|-------------------------------------
|------------------|-----------10-(9)|-------------------------------------

Rhythm B . . 8x --- --- --- --- --- --- --- ---
||-------------|-|---|)----|)----||-|--||--|-|-|-|-|-|-|-|-|-|-|-|-|-|-|-|-|-
||-------------|-|---|-----|-----||-|--||--|-|-|-|-|-|-|-|-|-|-|-|-|-|-|-|-|-
||.---.,;:'"':;,.|---|-----|----.||-|--||.-|-|-|-|-|-|-|-|-|-|-|-|-|-|-|-|-3-
||.(2)---------|(2)--4-----4----.||-|--||.-2-5-4-3-2-5-4-3-|-2-5-4-3-2-4-5-3-
||-(2)---------|(2)--4-----4-----||-|--||--2-5-4-3-2-5-4-3-|-2-5-4-3-2-4-5-1-
||-(0)---------|(0)--2--x--2--x--||-|--||--0-3-2-1-0-3-2-1-|-0-3-2-1-0-2-3---

4x Rhythm C 
-||------------|-----------|-||------------|----------|------------|-|.----
-||------------|-----------|-||------------|----------|------------|-|-----
.||---.,;:'"':;,.----------|-||.---.,;:'":;,.---------|------------|-|--Z--
.||(2)---------|(2)--------|-||.(2)--------|(2)-------|(5)---------|-5-----
-||(2)---------|(2)--------|-||-(2)--------|(2)-------|(5)---------|-5-----
-||(0)---------|(0)--------|-||-(0)--------|(0)-------|(3)---------|-3-----

2x
----------|------------|---------|----------|--|----|-----||---------------
----------|------------|---------|----------|--|----|-----||---------------
---Z---Z--|---.,;:'"':;,.--------|----------|--|----|----.||---------------
----------|(2)---------|(2)------|(5)-------|(10)--(7)---.||---------------
----------|(2)---------|(2)------|(5)-------|(10)--(7)----||---------------
----------|(0)---------|(0)------|(3)-------|(-8)--(5)----||---------------

Rhythm D
----- ----- -----
||--|-|-|--|.-|-|-|--|.--|--|-|-|--|--|--|--|-|-|-|--|--|-|-|--|-|---------
||--|-|-|--|--|-|-|--|---|--|-|-|--|--|--|--|-|-|-|--|--|-|-|--|-|---------
||.-|-|-|--|--|-|-|--|---|--|-|-|--|--|--|--|-|-|-|--|--|-|-|--|-|---------
||.-2-|-|--5--2-|-|--7---|--2-|-|--5--8--4--|-2-|-|--5--2-|-|--7-|---------
||--2-|-|--5--2-|-|--7---|--2-|-|--5--8--4--|-2-|-|--5--2-|-|--7-|---------
||--0-0-0--3--0-0-0--5---|--0-0-0--3--6--2--|-0-0-0--3--0-0-0--5-|---------

----- 2x Rhythm C 2x Rhythm D 2x 
-|-|-|--|-|-|--||------------------|-------------||---------|--------|-----
-|-|-|--|-|-|--||------------------|-------------||---------|--------|-----
-|-|-|--3-|-|-.||------------------|-------------||.--------|--------|-----
-2-|-|--3-4-3-.||------------------|-------------||.(2)-----|(2)-----|-----
-2-|-|--1-4-3--||------------------|-------------||-(2)-----|(2)-----|-----
-0-0-0----2-1--||------------------|-------------||-(0)-----|(0)-----|-----

----- -----
----------------|-|-|-|-|-|-|-|-|--|-----------|----------||---------------
----------------|-|-|-|-|-|-|-|-|--|-----------|----------||---------------
----------------|-|-|-|-|-|-|-|-|--|-----------|---------.||---------------
(2)-------------|-5-5-5-5-5-5-5-5--|(2)--------|(9)------.||---------------
(2)-------------|-5-5-5-5-5-5-5-5--|(2)--------|(9)-------||---------------
(0)-------------|-3-3-3-3-3-3-3-3--|(0)--------|(7)-------||---------------

Rhythm C 2x Rhythm D 2x --- --- --- (slower..till fade)
----------------|------------||--|.-|-|--|.-|-|-|-|--||--------------------
----------------|------------||--|--|-|--|--|-|-|-|--||--------------------
----------------|------------||.-|--|-|--|--|-|-|-|-.||--------------------
----------------|------------||.-2--4-4--2--4-4-5-5-.||--------------------
----------------|------------||--2--4-4--2--4-4-5-5--||--------------------
----------------|------------||--0--2-2--0--2-2-3-3--||--------------------





Comments


Popular Metallica tabs & chords
Fight Fire With Fire Bass Tabs
Hero Of The Day Chords
Mama Said Chords
Am I Evil Drum Tabs
Bad Seed Tabs
Escape 4 Tabs
Master Of Puppets 4 Tabs
One Solo Correct Tabs
Ronnie 2 Tabs
Sabbra Cadabra 1 Tabs


Song lyrics



↑ Back to top | Tablatures and chords are parodies/interpretations of the original songs. You may use it for private study, scholarship, research or language learning purposes only
© 2014 AZChords.com Contact us | Privacy policy | DMCA | Add/correct tabs | Request tabs | Top 50 tabs