» » »

Fade To Black Tabs (ver.10)

Artists:  A B C D E F G H I J K L M N O P Q R S T U V W X Y Z # 

Fade To Black Tabs (ver.10)

Metallica
Rating:
0/5 (0 votes)

Tabs too difficult? Try these video lessons and learn fast.
                (Live)
(Intro)
- Artist: Metallica
- Song: Fade To Black (Intro Solo)


Tablature Legend:

*  p = Pull Off
*  h = Hammer On
*  ~ = Vibrato
* /\ = Slide Into or Out Of 

Intro Solo: 

* Half-Step Down 
* With Distortion and Some Reverb 

eb|----------------------------------------|----------------------------------|
Bb|------------7------------7--8--10 ~ ~ --|--8--10-10h12--10--8-8/10 ~ ~ ----|
Gb|---------7------------------------------|----------------------------------|
Db|----/-9--------9 ~ ~ -------------------|----------------------------------|
Ab|----------------------------------------|----------------------------------|
Eb|----------------------------------------|----------------------------------|

eb|-----------------------------------|--------------------------------|
Bb|----12-10\8--7h8-7-----7-7h8-7 ~ --|-----7--------------------------|
Gb|--------------------9--------------|--9-----9--7--------------------|
Db|-----------------------------------|--------------7 ~ --/-9 ~ ~ ----|
Ab|-----------------------------------|--------------------------------|
Eb|-----------------------------------|--------------------------------|

eb|------------------------------------------------|
Bb|---------------------8-7 ~ ~ ----8-8/10 ~ ~ ----|
Gb|----/-7\6 ~ ~ --7p6-----------------------------|
Db|------------------------------------------------|
Ab|------------------------------------------------|
Eb|------------------------------------------------|
                                                       Full

                                                        )\
eb|-------14-19p14-------15p14-------------------------/--\------------|
Bb|----15----------15----------15----17p15-14---------/----\-----------|
Gb|-------------------16----------14----------16--14-/----(14) ~ ~ ----|
Db|--------------------------------------------------------------------|
Ab|--------------------------------------------------------------------|
Eb|--------------------------------------------------------------------|

eb|----------------------------------------------------|------------19-17-15tr17----|
Bb|---------------------------------14-15-14h15p14-----|--14h15-14------------------|
Gb|----14h16------------------14-16----------------16--|----------------------------|
Db|----------14 ~ ~ ----14h16--------------------------|----------------------------|
Ab|----------------------------------------------------|----------------------------|
Eb|----------------------------------------------------|----------------------------|

                                                     Full
    
                                                      )\
eb|----14-15-14--------------|--14-14h15-14----------/--\-------------|
Bb|--------------15----------|---------------15-----/----\------------|
Gb|-----------------16 ~ ~ --|------------------14-/-----(14) ~ ~ ----|
Db|--------------------------|----------------------------------------|
Ab|--------------------------|----------------------------------------|
Eb|--------------------------|----------------------------------------|

eb|----14-14h15-14-----17--|--15--14h15-14--14h15-14----14\----|
Bb|-----------------15-----|-----------------------------------|
Gb|------------------------|-----------------------------------|
Db|------------------------|-----------------------------------|
Ab|------------------------|-----------------------------------|
Eb|------------------------|-----------------------------------|

eb|-------------------------------|-----------12-13-15--13h15p13----17----|
Bb|-------------------------------|--12-13-15--------------------15-------|
Gb|------------------------12-14--|---------------------------------------|
Db|---------------12-14-15--------|---------------------------------------|
Ab|----/-12-14-15-----------------|---------------------------------------|
Eb|-------------------------------|---------------------------------------|
            
Tabs too difficult? Try these video lessons and learn fast.


comments powered by Disqus
↑ Back to top | Tablatures and chords are parodies/interpretations of the original songs. You may use it for private study, scholarship, research or language learning purposes only