>
 >
Fade To Black 4

Fade To Black 4 Guitar Tabs

Metallica - Fade To Black 4 chords, tabs, tablatures, lyrics

Guitar lessons | Add/correct | Request | Top 50 tabs Artists:  A B C D E F G H I J K L M N O P Q R S T U V W X Y Z 0-9

Fade To Black 4 Guitar Tabs – Metallica

CD, Sheet music, Poster

Do you like Fade To Black 4? Share with your friends now
Bass TabsBass Tabs v2Bass Tabs v3Bass Tabs v4ChordsChords v2Drum TabsTabsTabs v2Tabs v3Tabs v4Tabs v5Tabs v6Tabs v7Ukulele
FADE TO BLACK
As recorded by Metallica
(From the 1984 Album RIDE THE LIGHTNING)


 Words by Hetfield Music by Hetfield, Ulrich, Burton, Hammett
 

B5
7 9 9 x x x A5
5 7 7 x x x G5
3 5 5 x x x 



 Intro/Solo
  Moderate Rock Q=116
 4/4
  Gtr I
|-----------------|-----------------|-----------------|--------------------|
|-----------------|-----------------|-----------------|--------------------|
|-----0-----------|-----0-----------|-----0-----------|-----2--------------|
|---4---4---4---4-|---4---4---4---4-|---4---4---4---4-|---2---2----2----2--|
|-2-------2---5---|-0-------0---5---|-2-------2---5---|-4-------4----0-----|
|-----------------|-----------------|-----------------|--------------------|
|
| Gtr II
|-----------------|-----------------|-----------------|--------------------|
|-----------------|-----------------|-----------------|-----------------7--|
|-----------------|-----------------|-----------------|--------------7-(7)-|
|-----------------|-----------------|-----------------|-----------/9-------|
|-----------------|-----------------|-----------------|--------------------|
|-----------------|-----------------|-----------------|--------------------|


|-----------------------|------------------------|
|-----------------------|------------------------|
|-----0-----------------|---------0--------------|
|---4---4------4---4----|----4--------4----4---4-|
|-2----------2---5------|--0-------------0---5---|
|-----------------------|------------------------|
|
|-----------------------|------------------------|
|-------7-8s10-----8-10-|-12---10---8---10-------|
|-----------------------|------------------------|
|-9---------------------|------------------------|
|-----------------------|------------------------|
|-----------------------|------------------------|


|------------------------|---------------------------|
|------------------------|---------------------------|
|------------0-----------|---------2-----------------|
|-------4------4---4---4-|-----2-----2---2-------2---|
|---2------------2---5---|-4-----------4-----0-------|
|------------------------|---------------------------|
|
|------------------------|---------------------------|
|-(10)-12p10p8s7h8p7---7-|-7h8---7-----7-------------|
|--------------------9---|-----------9-----9---7-----|
|------------------------|---------------------------|
|------------------------|---------------------------|
|------------------------|---------------------------|


|--------------------|-------------------|
|--------------------|-------------------|
|-----0--------------|-----0-------------|
|---4---4---4------4-|---4---4-----4---4-|
|-2-------2----5-----|-0--------0----5---|
|--------------------|-------------------|
|
|--------------------|-------------------|
|--------------------|-----------------8-|
|------------------7s|=6-------(6)-7p6---|
|-7---9-------(9)\---|-------------------|
|--------------------|-------------------|
|--------------------|-------------------|


|-----------------|----------------------|
|-----------------|----------------------|
|-----0-----------|------2---------------|
|---4---4---4---4-|----2---2---2----2----|
|-2-------2---5---|--4-------4---0-------|
|-----------------|----------------------|
|
|                    ~~
|-----------------|-------------------14-|
|-7-------------8s|=10-------------15----|
|-----------------|----------------------|
|-----------------|----------------------|
|-----------------|----------------------|
|-----------------|----------------------|


|---------------------------------------------|-----------------------------|
|---------------------------------------------|-----------------------------|
|--------------0------------------------------|--------0--------------------|
|--------4-----------4-----------4----------4-|------4----4-------4----4----|
|--2-----------------------2-----------5------|---0-------------0---5-------|
|---------------------------------------------|-----------------------------|
|
|                                                 ~~~~          ~~
|-19-14-------15p14---------------------------|-----------------------------|
|-------15----------15----17-15-14------------|-----------------------------|
|----------16----------14----------16-14b16r==|=(14)-----14h16--------------|
|---------------------------------------------|----------------14-----14h16-|
|---------------------------------------------|-----------------------------|
|---------------------------------------------|-----------------------------|


|-------------------------------|------------------------|
|-------------------------------|------------------------|
|--------0----------------------|--------2---------------|
|-----4-----4-----------4-----4-|-----2-----2---2-----2--|
|--2-----------2-----------5----|--4----------4----0-----|
|-------------------------------|------------------------|
|
|-------------------------------|----19-17-15-----15-17--|
|-------14-15-14h15p14----14h15-|-14---------------------|
|-14-16----------------16-------|------------------------|
|-------------------------------|------------------------|
|-------------------------------|------------------------|
|-------------------------------|------------------------|


|----------------------|----------------------|
|----------------------|----------------------|
|-------0--------------|-------0--------------|
|----4-----4---4-----4-|----4-----4---4-----4-|
|--2---------2----5----|--0---------0----5----|
|----------------------|----------------------|
|
|          ~~
|-14-------------14-15-|-14-------------14-15-|
|------15--------------|------15--------------|
|---------16-----------|---------14-----------|
|----------------------|----------------------|
|----------------------|----------------------|
|----------------------|----------------------|


|---------------------|-------------------|
|---------------------|-------------------|
|-------0-------------|------2------------|
|----4-----4---4----4-|----2---2---2---2--|
|--2---------2----5---|--4-------4---0----|
|---------------------|-------------------|
|
|-14------17-----15---|-14----------------|
|------15-------------|-------------------|
|---------------------|-------------------|
|---------------------|-------------------|
|---------------------|-------------------|
|---------------------|-------------------|


|-------------------------|-------------------------------||
|-------------------------|--------------------0--------3-||
|-------------------------|--------1--------1-------------||
|--------0-----------2----|-----2--------2----------------||
|-----3-----------2-----2-|--2--------2-------------------||
|--1--------1--4----------|-------------------------------||
|
|-------------------------|----------12-13-15-13h15p13----||
|-------------------------|-12-13-15-------------------15-||
|-------------------12-14-|-------------------------------||
|----------12-14-15-------|-------------------------------||
|-12-14-15----------------|-------------------------------||
|-------------------------|-------------------------------||


 Pre-Verse
|----------0---------|----------0---------|----------3---3-3-|----------------|
|-^0h1-------------1-|-(1)--1-----------0-|-(0)--3-----------|--------0--1s3--|
|-^2---2-------0h2---|--0-----------0h2---|--0-----------2-0-|-0------0--2s4--|
|-^2-----2---2-------|--2-----2---2-------|--------0---0-----|----2-----------|
|-^0-----------------|--3-----------------|------------------|------2---------|
|--------------------|--------------------|--3---------------|-0--------------|
|
|-17-----------------|--------------------|------------------|----------------|
|--------------------|--------------------|------------------|----------------|
|--------------------|--------------------|------------------|----------------|
|--------------------|--------------------|------------------|----------------|
|--------------------|--------------------|------------------|----------------|
|--------------------|--------------------|------------------|----------------|


|----------0---------|----------0---------|
|-^0h1-------------1-|-(1)--1-----------0-|
|-^2---2-------0h2---|--0-----------0h2---|
|-^2-----2---2-------|--2-----2---2-------|
|-^0-----------------|--3-----------------|
|--------------------|--------------------|
|
|--------------------|--------------------|
|--------------------|--------------------|
|--------------------|--------------------|
|--------------------|--------------------|
|--------------------|--------------------|
|--------------------|--------------------|


|----------3-----------|-0----------------|
|-(0)--3---------------|-0-------0--1s3---|
|--0-----------0h2p0-0-|-0-------0--2s4---|
|--------0---0---------|-2---2------------|
|----------------------|-------2----------|
|--3-------------------|---0--------------|
|
|----------------------|------------------|
|----------------------|------------------|
|----------------------|------------------|
|----------------------|------------------|
|----------------------|------------------|
|----------------------|------------------|


|----------0-----------|----------0-----------------|
|-^0h1---------------1-|-(1)--1---------------0-----|
|-^2---2---------0h2---|--0-----------0h====2-------|
|-^2-----2---2---------|--2-----2---2---------------|
|-^0-------------------|--3-------------------------|
|----------------------|----------------------------|
|
|                                     T       T
|----------------------|----------------------------|
|--------------0h1-----|----------------------------|
|--2-------------------|--0-------------------4(16)-|
|----------------------|--------------5(17)---------|
|----------------------|----------------------------|
|----------------------|----------------------------|


|-------------3----3-3-|-----------------|
|-(0)-----3------------|---------0--1s3--|
|--0---------------2-0-|--0------0--2s4--|
|-----------0---0------|-----2-----------|
|----------------------|-------2---------|
|--3-------------------|--0--------------|
|
|  T
|-----------------12---|-10--------------|
|--3(15)---------------|--8--------------|
|----------------------|--9--------------|
|----------------------|-----------------|
|----------------------|-----------------|
|----------------------|-----------------|


|----------0---------|----------0-----------------|
|-^0h1-------------1-|-(1)--1---------------0-----|
|-^2---2-------0h2---|--0-----------0h====2-------|
|-^2-----2---2-------|--2-----2---2---------------|
|-^0-----------------|--3-------------------------|
|--------------------|----------------------------|
|
|                                   T       T
|--------------------|----------------------------|
|------------------1-|----------------------------|
|--2-----------------|--0-------------------4(16)-|
|--------------------|--------------5(17)---------|
|--------------------|----------------------------|
|--------------------|----------------------------|


|-------------3-----------|-0--------------------||
|-(0)-----3-------3-------|-0-----------0--1s3---||
|--0----------------2-----|-0-----------0--2s4---||
|-----------0---0---------|-2-------2------------||
|-------------------------|-----------2----------||
|--3----------------------|-------0--------------||
|
|  T                T       T
|-------------------------|-3(15)----------------||
|--3(15)------------5(17)-|----------------------||
|-------------------------|----------------------||
|-------------------------|----------------------||
|-------------------------|----------------------||
|-------------------------|----------------------||


   Verse
    $
    Gtr I
||-----------0---------|----------0---------|
||o-^0h1-------------1-|-(1)--1-----------0-|
||--^2---2-------0h2---|--0-----------0h2---|
||--^2-----2---2-------|--2-----2---2-------|
||o-^0-----------------|--3-----------------|
||---------------------|--------------------|


|----------3---3-3-|----------------|
|-(0)--3-----------|--------0--1s3--|
|--0-----------2-0-|-0------0--2s4--|
|--------0---0-----|----2-----------|
|------------------|------2---------|
|--3---------------|-0--------------|


|----------0---------|----------0---------|
|-^0h1-------------1-|-(1)--1-----------0-|
|-^2---2-------0h2---|--0-----------0h2---|
|-^2-----2---2-------|--2-----2---2-------|
|-^0-----------------|--3-----------------|
|--------------------|--------------------|


                    1.
|----------3-------|-0-----------------||
|-(0)--3-------3---|-0-------0--1s3---o||
|--0-------------2-|-0-------0--2s4----||
|--------0---0-----|-2---2-------------||
|------------------|-------2----------o||
|--3---------------|---0---------------||


                     Chorus (No Vocals)
  2.
|-----------------||------------------|-----------------|-------------|
|-----------------||o-----------------|-----------------|-------------|
|-0---------------||------------------|-----------------|-------------|
|-----------------||------------------|-----------------|-------------|
|-----------------||o-----------------|-----------------|-------------|
|-3---------------||------------------|-----------------|-------------|
|
| Gtr III
|   PM----------|             PM----|           PM----|
|-----------------||------------------|-----------------|-------------|
|-5-5-5-5-5-5-5-5-||o-0---2-2---------|-5---5-5---------|-2---2-2-----|
|-5-5-5-5-5-5-5-5-||--2---2-2---------|-5---5-5---------|-2---2-2--7--|
|-2-2-2-2-2-2-2-2-||--2---2-2---------|-5---5-5---------|-2---2-2--7--|
|-----------------||o-0---0-0-------5-|-3---3-3-------5-|-0---0-0--5--|
|-0-0-0-0-0-0-0-0-||----------0-0-3---|---------0-0-3---|-------------|


                                                            To Coda
  Gtr III
          PM----|           PM----|           PM----|            PM|
|-----------------|-----------------|-----------------|--------------|-------||
|-9---9-9---------|-0---2-2---------|-5---5-5---------|-2---2-2------|------o||
|-9---9-9---------|-2---2-2---------|-5---5-5---------|-2---2-2------|-1-----||
|-9---9-9-----5-5-|-2---2-2---------|-5---5-5---------|-2---2-2------|-2-----||
|-7---7-7-----3-2-|-0---0-0-------5-|-3---3-3-------5-|-0---0-0--5-4-|-2----o||
|---------0-0-----|---------0-0-3---|---------0-0-3---|----------3-2-|-0-----||


 Interlude/Solo
  Gtr I
|----------0-----------|---------------0---------------|
|-^0h1---------------1-|-(1)--1----------------------0-|
|-^2---2--------0h2----|--0-------------------0h2------|
|-^2-----2---2---------|--2------2-------2-------------|
|-^0-------------------|--3----------------------------|
|----------------------|-------------------------------|
|
| Gtr IV
|  ~~~                    ~~~
|----------------------|-------------------------------|
|-10-----------10---12-|-13-----13-13s15---13-----12---|
|--9------------9---11-|-12-----12-12s14---12-----11---|
|----------------------|-------------------------------|
|----------------------|-------------------------------|
|----------------------|-------------------------------|


|----------3----3--3-|---------------------|
|-(0)--3-------------|--------0----1s=3----|
|--0------------2--0-|-0------0----2s=4----|
|--------0---0-------|----2----------------|
|--------------------|------2--------------|
|--3-----------------|-0-------------------|
|
|  ~~~                 ~
|--------------------|---------------------|
|--------------------|---------------------|
|-12-----------12s14-|-9------9s11---11s12-|
|-12-----------12s14-|-9------9s11---11s12-|
|--------------------|---------------------|
|--------------------|---------------------|


|-------------0-----------|-----------0--------------------|
|----^0h1---------------1-|-(1)--1-----------------------0-|
|----^2---2--------0h2----|--0--------------------0h2------|
|----^2-----2---2---------|--2-----2-------2---------------|
|----^0-------------------|--3-----------------------------|
|-------------------------|--------------------------------|
|
|     ~~~                    ~~~
|-------------------------|--------------------------------|
|----------------------12-|-13-------15b17r==(15)-----13---|
|-12s14-----------14---11-|-12-------14b16r==(14)-----12---|
|-12s14-----------14------|--------------------------------|
|-------------------------|--------------------------------|
|-------------------------|--------------------------------|


                                             D.S. al Coda
|-----------------3------------------|---0-----------------||
|-(0)-----3--------------------------|---0--------0--1s3---||
|--0----------------------0h===2p0-0-|---0--------0--2s4---||
|--------------0-------0-------------|---2----2------------||
|------------------------------------|----------2----------||
|--3---------------------------------|------0--------------||
|
|                                        ~~~~
|------------------------------------|---------------------||
|-15b17--15b17---15b17---15b17r======|=(15)----------------||
|-14b16--14b16---14b16---14b16r======|=(14)----------------||
|------------------------------------|---------------------||
|------------------------------------|---------------------||
|------------------------------------|---------------------||


   Bridge
    Faster Q=144
    $$
    &
    Gtr III
                                             PM----------------------|
||--------------|----------------|---------------|------------------------|
||o-------------|----------------|---------------|------------------------|
||--7s9--9-9----|-7s9--9S12-11---|--7--7-7-------|---------------------4--|
||--7s9--9-9----|-7s9--9S12-11---|--7--7-7---9-9-|-9-7-7-7-5-5-5-4-4-4----|
||o-5s7--7-7----|-5s7--7S10--9---|--5--5-5-------|------------------------|
||--------------|----------------|---------------|------------------------|


                                                         To Dbl. Coda
                                           PM----------------------|
|-------------|----------------|---------------|------------------------||
|-------------|----------------|---------------|-----------------------o||
|-7s9--9-9----|-7s9--9S12-11---|--7--7-7-------|------------------------||
|-7s9--9-9----|-7s9--9S12-11---|--7--7-7---9-9-|-9-7-7-7-5-5-5-4-4-4-5--||
|-5s7--7-7----|-5s7--7S10--9---|--5--5-5-------|-----------------------o||
|-------------|----------------|---------------|------------------------||


  Gtr III
                                            PM---------------------------|
|-------------|----------------|-----------------|---------------------------|
|-------------|----------------|-----------------|---------------------------|
|-7s9--9-9----|-7s9--9S12-11---|--7--7-7---------|-------------------------4-|
|-7s9--9-9----|-7s9--9S12-11---|--7--7-7----9--9-|--9--7--7--7-5-5-5-4-4-4---|
|-5s7--7-7----|-5s7--7S10--9---|--5--5-5---------|---------------------------|
|-------------|----------------|-----------------|---------------------------|
|
| Gtr IV
|                          ~~          ~    PM---------------------------|
|-------------|----------------|-----------------|---------------------------|
|-7-8--8-8----|-7-8--8-12-10---|--7--7-----12-12-|-12-10-10-10-8-8-8-7-7-7---|
|-------------|----------------|-------7---------|---------------------------|
|-7-9--9-9----|-7-9--9-12-11---|--7--7-7---12-12-|-12-11-11-11-9-9-9-7-7-7-9-|
|-------------|----------------|-----------------|---------------------------|
|-------------|----------------|-----------------|---------------------------|


                                                     D.S.S. al Dbl. Coda
                                              PM----------------------|
|-------------|----------------|------------------|-----------------------||
|-------------|----------------|------------------|-----------------------||
|-7s9--9-9----|-7s9--9S12-11---|---7---7--7-------|-----------------------||
|-7s9--9-9----|-7s9--9S12-11---|---7---7--7---9-9-|-9-7-7-7-5-5-5-4-4-4-5-||
|-5s7--7-7----|-5s7--7S10--9---|---5---5--5-------|-----------------------||
|-------------|----------------|------------------|-----------------------||
|
|                          ~~             ~~  PM----------------------|
|-------------|----------------|------------------|-----------------------||
|-7-8--8-8----|-7-8--8-12-10---|--------------7-7-|-7-5-5-5-3-3-3-2-2-2-3-||
|-------------|----------------|--11--11-11---7-7-|-7-6-6-6-4-4-4-2-2-2-4-||
|-7-9--9-9----|-7-9--9-12-11---|---7---7--7-------|-----------------------||
|-------------|----------------|---9---9--9-------|-----------------------||
|-------------|----------------|------------------|-----------------------||


  &&
  Gtr III
  PM----|         PM----|           PM----|     PM----------------------|
|---------------|-----------------|-----------------|-----------------------|
|---------------|-----------------|---------7-------|-----------------------|
|---------9---9-|---------12-11---|---------7-------|---------------------4-|
|---------9---9-|---------12-11---|---------7---9-9-|-9-7-7-7-5-5-5-4-4-4---|
|---------7---7-|---------10--9---|---------5-------|-----------------------|
|-0-0-0-0-------|-0-0-0-0---------|-0-0-0-0---------|-----------------------|


  PM----|         PM----|           PM----|     PM----------------------|
|---------------|-----------------|-----------------|-----------------------||
|---------------|-----------------|---------7-------|-----------------------||
|---------9---9-|---------12-11---|---------7-------|-----------------------||
|---------9---9-|---------12-11---|---------7---9-9-|-9-7-7-7-5-5-5-4-4-4-5-||
|---------7---7-|---------10--9---|---------5-------|-----------------------||
|-0-0-0-0-------|-0-0-0-0---------|-0-0-0-0---------|-----------------------||


 Out-Solo
  B5                              A5
  Gtr III
  |    |   |     |                |    |   |     |
  /    /   /     /                /    /   /     /

  Gtr II
                            PM|                             PM|
|-------------|-----------------|-------------|------------------|
|-------------|-----------------|-------------|------------------|
|-------------|-----------------|-------------|------------------|
|-----/4---5--|-(5)-4---2-------|-----/4---5--|-(5)-4---2--------|
|-5-----------|-----------5-4---|-4-----------|-----------5-4----|
|-------------|---------------5-|-------------|---------------5--|
|
| Gtr IV
|                           PM|                             PM|
|-------------|-----------------|-------------|------------------|
|-------------|-----------------|-------------|------------------|
|-------------|-----------------|-------------|------------------|
|-----/4---2--|-(2)-------------|-----/4---2--|-(2)--------------|
|-2-----------|-----5---4-2-----|-------------|-----5---4-2------|
|-------------|-------------5-2-|-5-----------|-------------5-2--|


  G5                              A5
  |    |   |     |                |    |   |     |  |   |   |
  /    /   /     /                /    /   /     /  /   /   /

                            PM|                             PM|
|-------------|-----------------|-------------|------------------||
|-------------|-----------------|-------------|------------------||
|-------------|-----------------|-------------|------------------||
|-----/4---5--|-(5)-4---2-------|-----/4---5--|-(5)-7---5-4-2-4--||
|-2-----------|-----------5-4---|-5-----------|------------------||
|-------------|---------------5-|-------------|------------------||
|
|                           PM|                             PM|
|-------------|-----------------|-------------|------------------||
|-------------|-----------------|-------------|------------------||
|-------------|-----------------|-------------|------------------||
|-----/4---2--|-(2)-------------|-----/4---2--|-(2)--------------||
|-------------|-----5---4-2-----|-2-----------|-----5---4-2------||
|-3-----------|-------------5-2-|-------------|-------------5-2--||


  B5
  |    |   |     |
  /    /   /     /

  Gtr IV
                             PM|
|-------------|------------------|
|-------------|------------------|
|----------0--|-(0)--------------|
|-0---/4---2--|-(2)-4----2-0-----|
|-2-----------|-----5----4-2-4-0-|
|-------------|--------------5-2-|
|
| Gtr II
|-------------|------------------|
|-------------|------------------|
|-------------|----------------7-|
|-------------|---------/9---9---|
|-------------|------------------|
|-------------|------------------|


  A5
  |       |      |        |
  /       /      /        /

                                             PM|
|----------------------|-------------------------|
|----------------------|-------------------------|
|----------------0-----|-(0)---------------------|
|--------/4------2-----|-(2)-4-----------2-0-----|
|-4--------------------|-----5-----------4-2-4-0-|
|-5--------------------|---------------------5-2-|
|
|----------------------|-------------------------|
|----------------------|-----------------------7-|
|-9b11----9b11---9b11--|-(9)-9b11r=(9)p7-9-9-9---|
|----------------------|-------------------------|
|----------------------|-------------------------|
|----------------------|-------------------------|


  G5
    |         |      |        |
    /         /      /        /

                                             PM|
|------------------------|------------------------|
|------------------------|------------------------|
|--------------------0---|---(0)------------------|
|------------/4------2---|---(2)-4------2--0------|
|---2--------------------|-------5------4--2-4--0-|
|---3--------------------|-------------------5--2-|
|
|------------------------|------------------------|
|-7h8--7h8p7----7h8--7---|-7--8----7---10-10-8-10-|
|-------------7--------7-|-----------7------------|
|------------------------|------------------------|
|------------------------|------------------------|
|------------------------|------------------------|


  A5
    |       |        |      |  |      |     |
    /       /        /      /  /      /     /

                                            PM--|
|------------------------|------------------------|
|------------------------|------------------------|
|--------------------0---|-(0)--------------------|
|----------/4--------2---|-(2)-4------5-4---2---4-|
|---4--------------------|-----5------4-2---------|
|---5--------------------|------------------5---2-|
|
|------------------------|------------------------|
|-/12-10-8----8h10-8---7-|--8----10---8-----------|
|------------------------|----------9-----9---7---|
|------------------------|------------------------|
|------------------------|------------------------|
|------------------------|------------------------|


  B5
  |     |    |      |
  /     /    /      /

                                       PM|
|----------------|-------------------------|
|----------------|-------------------------|
|------------0---|-(0)---------------------|
|-0----/4----2---|-(2)----4--------2-0-----|
|-2--------------|--------5--------4-2-4-0-|
|----------------|---------------------5-2-|
|
|----------------|-------------------------|
|----------------|-------------------------|
|------------7-9-|--9b11r(9)p7-9-7-7---7-9-|
|-7--9--9--9-----|-------------------9-----|
|----------------|-------------------------|
|----------------|-------------------------|


  A5
  |            |                   |
  /            /                   /

|---------------------------------------------|
|---------------------------------------------|
|----------------------------------0----------|
|-------------/4-------------------2----------|
|-4-------------------------------------------|
|-5-------------------------------------------|
|
|------7------------7-----------7-------------|
|--------10p7---------10p7--------10p7------7-|
|-9b11---------9b11--------9b11--------9b11---|
|---------------------------------------------|
|---------------------------------------------|
|---------------------------------------------|


   |
   /

                                       PM--|
|-------------------------------------------------|
|-------------------------------------------------|
|-(0)---------------------------------------------|
|-(2)--4-------------------2---0------------------|
|------5-------------------4---2-------4---0------|
|--------------------------------------5---2------|
|
|-----------------------7-----------7-----------7-|
|-10p7------7-10p7--------10p7--------10p7--------|
|------9b11--------9b11--------9b11--------9b11---|
|-------------------------------------------------|
|-------------------------------------------------|
|-------------------------------------------------|


  G5
   |              |              |
   /              /              /

|-----------------------------------------|
|-----------------------------------------|
|--------------------------------0--------|
|----------------/4--------------2--------|
|--2--------------------------------------|
|--3--------------------------------------|
|
|-10p7----7-10p7-10p7----7-10p7-10p7----7-|
|------10-------------10-------------10---|
|-----------------------------------------|
|-----------------------------------------|
|-----------------------------------------|
|-----------------------------------------|


   |
   /

                                PM--|
|----------------------------------------|
|----------------------------------------|
|-(0)------------------------------------|
|-(2)--4--------------2----0-------------|
|------5--------------4----2----4----0---|
|-------------------------------5----2---|
|
|-10p7---7-10p7-10p7----7-10p7-10p7----7-|
|------7-------------10-------------10---|
|----------------------------------------|
|----------------------------------------|
|----------------------------------------|
|----------------------------------------|


  A5
   |            |        |         |     |          |       |
   /            /        /         /     /          /       /

                                                            PM--|
|-------------------------------|-----------------------------------|
|-------------------------------|-----------------------------------|
|------------------------0------|-(0)-------------------------------|
|--------------/4--------2------|-(2)----4----------5---4---2---4---|
|--4----------------------------|--------5----------4---2-----------|
|--5----------------------------|---------------------------5---2---|
|
|-10b12--10b12----10-8-7-8-7----|--7--------------------------------|
|----------------------------10-|-----10---8-10-8-7-8-7-----7-------|
|-------------------------------|-------------------------9---9---7-|
|-------------------------------|-----------------------------------|
|-------------------------------|-----------------------------------|
|-------------------------------|-----------------------------------|


  B5
  |     |      |      |
  /     /      /      /

                                     PM|
|------------------|---------------------|
|------------------|---------------------|
|--------------0---|-(0)-----------------|
|-0----/4------2---|-(2)--4------2-0-----|
|-2----------------|------5------4-2-4-0-|
|------------------|-----------------5-2-|
|
|------------------|--------7------------|
|----------8p7---7-|--8--10---10-8-7-----|
|--------------9---|-----------------9-7-|
|-7--9--9----------|---------------------|
|------------------|---------------------|
|------------------|---------------------|


  A5
  |     |      |      |
  /     /      /      /

                                    PM|
|------------------|---------------------|
|------------------|---------------------|
|--------------0---|-(0)-----------------|
|------/4------2---|-(2)--4-----2-0------|
|-4----------------|------5-----4-2-4-0--|
|-5----------------|----------------5-2--|
|
|                               ~
|------------------|--------7-8-7---7-8--|
|----------8p7---7-|--8--10--------------|
|--------------9---|---------------------|
|-7--9--9----------|---------------------|
|------------------|---------------------|
|------------------|---------------------|


  G5
   |          |            |        |
   /          /            /        /

                                                           PM--|
|--------------------------------|----------------------------------|
|--------------------------------|----------------------------------|
|--------------------------0-----|-(0)------------------------------|
|------------/4------------2-----|-(2)---4---------2---0------------|
|--2-----------------------------|-------5---------4---2---4---0----|
|--3-----------------------------|-------------------------5---2----|
|
|-10-8-7-8-7-------7-------------|----------------------------------|
|---------------10---10-8-10-8-7-|--8--7-----7----------------------|
|--------------------------------|---------9---9-7-9-7---6-7-6------|
|--------------------------------|-------------------------------9--|
|--------------------------------|----------------------------------|
|--------------------------------|----------------------------------|


  A5
  |          |           |        |    |          |        |
  /          /           /        /    /          /        /

                                                           PM--|
|------------------------------|------------------------------------|
|------------------------------|------------------------------------|
|------------------------0-----|-(0)--------------------------------|
|-----------/4-----------2-----|-(2)---4----------5----4---2---4----|
|-4----------------------------|-------5----------4----2------------|
|-5----------------------------|---------------------------5---2----|
|
|---------------------7--------|------------------7-----------------|
|--------------7-8-10---10-8-7-|--8--7-----7-8-10---10---8-7-8p7----|
|-----6-7-9--------------------|---------9-----------------------9--|
|-7-9--------------------------|------------------------------------|
|------------------------------|------------------------------------|
|------------------------------|------------------------------------|


  B5
  |           |       |        |
  /           /       /        /

                                                                 PM--|
|---------------------------|------------------------------------------|
|---------------------------|------------------------------------------|
|---------------------0-----|-(0)--------------------------------------|
|-0----------/4-------2-----|-(2)------4-------------2-----0-----------|
|-2-------------------------|----------5-------------4-----2-----4---0-|
|---------------------------|------------------------------------5---2-|
|
|---------------------------|------------------------------------------|
|---------------------------|------------------------------------------|
|-9b11--9b11----9b11--9b11--|--9b11==9-9-9-9-9-9-9-9-9-9-9---9-9r9p7---|
|---------------------------|----------------------------------------9-|
|---------------------------|------------------------------------------|
|---------------------------|------------------------------------------|


  A5
  |            |              |        |
  /            /              /        /

                                                           PM---|
|-----------------------------------|-----------------------------|
|-----------------------------------|-----------------------------|
|-----------------------------0-----|-(0)-------------------------|
|-------------/4--------------2-----|-(2)-----4----2----0---------|
|-4---------------------------------|---------5----4----2--4----0-|
|-5---------------------------------|----------------------5----2-|
|
|-------10-10-10-------10-10-10-----|-10--10-10-------------------|
|--------7--7--7--------7--7--7-----|--7---7--7---10b12---10b12---|
|-7------7--7--7--------7--7--7-----|--7---7--7-------------------|
|---x-x----------x-x-x----------x-x-|-----------------------------|
|---x-x----------x-x-x----------x-x-|-----------------------------|
|-----------------------------------|-----------------------------|


  G5
   |       |        |      |
   /       /        /      /

                                           PM|
|-----------------------|-----------------------|
|-----------------------|-----------------------|
|-------------------0---|-(0)-------------------|
|---------/4--------2---|-(2)--4-------2-0------|
|--2--------------------|------5-------4-2-4-0--|
|--3--------------------|------------------5-2--|
|
|  ~~~~~                               ~
|-----------------------|-----------------------|
|-10b12------10p7---7-8-|--7h8p7----------------|
|-----------------9-----|--------9-7---7-----7--|
|-----------------------|------------9-----9----|
|-----------------------|-----------------------|
|-----------------------|-----------------------|


  A5
  |          |         |        |    |         |     |
  /          /         /        /    /         /     /

                                                     PM---|
|----------------------------|---------------------------------|
|----------------------------|---------------------------------|
|----------------------0-----|-(0)-----------------------------|
|-----------/4---------2-----|-(2)---4---------5-4---2----4----|
|-4--------------------------|-------5---------4-2-------------|
|-5--------------------------|-----------------------5----2----|
|
|----------------------------|---------------------------------|
|----------------------------|------------------------------12-|
|-9-7---7--------------------|---------------------------------|
|-----9---9----7-9-7---7-----|---------------------------------|
|--------------------9---9-7-|--9--7---5-7-5---5-5-5-5-7/------|
|----------------------------|---------------7-----------------|


  B5
   |                 |                 |
   /                 /                 /

|-------------------------------------------------|
|-------------------------------------------------|
|--------------------------------------0----------|
|--0----------------/4-----------------2----------|
|--2----------------------------------------------|
|-------------------------------------------------|
|
|-15p12----12-15p12-14p12----12-15p12-14p12----12-|
|-------12----------------12----------------12----|
|-------------------------------------------------|
|-------------------------------------------------|
|-------------------------------------------------|
|-------------------------------------------------|


   |
   /

                                       PM---|
|-------------------------------------------------|
|-------------------------------------------------|
|-(0)---------------------------------------------|
|-(2)----4-----------------2-----0----------------|
|--------5-----------------4-----2-----4-----0----|
|--------------------------------------5-----2----|
|
|-15p12----12-15p12-14p12----12-15p12-14p12----12-|
|-------12----------------12----------------12----|
|-------------------------------------------------|
|-------------------------------------------------|
|-------------------------------------------------|
|-------------------------------------------------|


  A5
   |                 |                 |
   /                 /                 /

|-------------------------------------------------|
|-------------------------------------------------|
|--------------------------------------0----------|
|-------------------/4-----------------2----------|
|--4----------------------------------------------|
|--5----------------------------------------------|
|
|-17p14----14-17p14----14-17p14----14-17p14----14-|
|-------15----------15----------15----------15----|
|-------------------------------------------------|
|-------------------------------------------------|
|-------------------------------------------------|
|-------------------------------------------------|


   |
   /

                                       PM---|
|-------------------------------------------------|
|-------------------------------------------------|
|-(0)---------------------------------------------|
|-(2)----4-----------------2-----0----------------|
|--------5-----------------4-----2-----4-----0----|
|--------------------------------------5-----2----|
|
|-17p14----14-17p14----14-17p14----14-17p14----14-|
|-------15----------15----------15----------15----|
|-------------------------------------------------|
|-------------------------------------------------|
|-------------------------------------------------|
|-------------------------------------------------|


  G5
   |                 |                 |
   /                 /                 /

|-------------------------------------------------|
|-------------------------------------------------|
|--------------------------------------0----------|
|-------------------/4-----------------2----------|
|--2----------------------------------------------|
|--3----------------------------------------------|
|
|-19p15----15-19p15-17p15----15-19p15-17p15----15-|
|-------17----------------17----------------17----|
|-------------------------------------------------|
|-------------------------------------------------|
|-------------------------------------------------|
|-------------------------------------------------|


   |
   /

                                       PM---|
|-------------------------------------------------|
|-------------------------------------------------|
|-(0)---------------------------------------------|
|-(2)----4-----------------2-----0----------------|
|--------5-----------------4-----2-----4-----0----|
|--------------------------------------5-----2----|
|
|-19p15----15-19p15-17p15----15-19p15-17p15----15-|
|-------17----------------17----------------17----|
|-------------------------------------------------|
|-------------------------------------------------|
|-------------------------------------------------|
|-------------------------------------------------|


  A5
   |                 |                 |
   /                 /                 /

|-------------------------------------------------|
|-------------------------------------------------|
|--------------------------------------0----------|
|-------------------/4-----------------2----------|
|--4----------------------------------------------|
|--5----------------------------------------------|
|
|-21p17----17-21p17----17-21p17----17-21p17----17-|
|-------19----------19----------19----------19----|
|-------------------------------------------------|
|-------------------------------------------------|
|-------------------------------------------------|
|-------------------------------------------------|


   |     |                 |           |
   /     /                 /           /

                                       PM---|
|-------------------------------------------------|
|-------------------------------------------------|
|-(0)---------------------------------------------|
|-(2)----4-----------------5-----4-----2-----4----|
|--------5-----------------4-----2----------------|
|--------------------------------------5-----2----|
|
|-21p17----17-21p17----17-21p17----17-21p17----17-|
|-------19----------19----------19----------19----|
|-------------------------------------------------|
|-------------------------------------------------|
|-------------------------------------------------|
|-------------------------------------------------|


  B5
   |            |         |        |
   /            /         /        /

                                                                      PM-|
|-------------------------------|-------------------------------------------|
|-------------------------------|-------------------------------------------|
|-------------------------0-----|-(0)---------------------------------------|
|--0-----------/4---------2-----|-(2)---4--------------2----0---------------|
|--2----------------------------|-------5--------------4----2---------4---0-|
|-------------------------------|-------------------------------------5---2-|
|
|                                                      ~~~~~
|-22b24--22b24----22b24--22b24--|-22b24---22b24-22b24-22b24---22b24r(22)-19-|
|-------------------------------|-------------------------------------------|
|-------------------------------|-------------------------------------------|
|-------------------------------|-------------------------------------------|
|-------------------------------|-------------------------------------------|
|-------------------------------|-------------------------------------------|


  A5
   |              |              |          |
   /              /              /          /

                                                                           PM--|
|----------------------------------------|-------------------------------------------|
|----------------------------------------|-------------------------------------------|
|--------------------------------0-------|-(0)---------------------------------------|
|----------------/4--------------2-------|-(2)----4--------------2----0--------------|
|--4-------------------------------------|--------5--------------4----2----4---0-----|
|--5-------------------------------------|---------------------------------5---2-----|
|
|-22-20-19-20-19----17-19-17-15-17-15-14-|-15--14---12-14-12-10-12-10---9-10-9---7---|
|----------------------------------------|-------------------------------------------|
|----------------------------------------|-------------------------------------------|
|----------------------------------------|-------------------------------------------|
|----------------------------------------|-------------------------------------------|
|----------------------------------------|-------------------------------------------|


  G5
  |            |          |        |
  /            /          /        /

                                                      PM|
|-------------------------------|-------------------------|
|-------------------------------|-------------------------|
|-------------------------0-----|-(0)---------------------|
|-------------/4----------2-----|-(2)---4---------2-0-----|
|-2-----------------------------|-------5---------4-2-4-0-|
|-3-----------------------------|---------------------5-2-|
|
|-9-7----7----------------------|-------------------------|
|-----10---10----8-10-8-7-8-7---|--7----------------------|
|-----------------------------9-|-----9---7-9-7---7-7-7-7-|
|-------------------------------|---------------9---------|
|-------------------------------|-------------------------|
|-------------------------------|-------------------------|


  A5
  |            |   |     |  |         |      |
  /            /   /     /  /         /      /

                                             PM|
|---------------------|--------------------------|
|---------------------|--------------------------|
|------------------0--|-(0)----------------------|
|-------------/4---2--|-(2)-4---------5----4-2-4-|
|-4-------------------|-----5---------4----2-----|
|-5-------------------|----------------------5-2-|
|
|       TP               TP    TP
|---------------------|--------------------------|
|---------------------|----------------------7-7-|
|-9b11--9b11==========|=(9)---(9)r(9)-9b11-------|
|---------------------|--------------------------|
|---------------------|--------------------------|
|---------------------|--------------------------|


  B5
   |                  |               |
   /                  /               /

|-------------------------------------------------|
|-------------------------------------------------|
|-------------------------------------0-----------|
|--0-----------------/4---------------2-----------|
|--2----------------------------------------------|
|-------------------------------------------------|
|
|-------7-----------------------------------------|
|-10b12---10b12r(10)p=7-10b12r(10)p7-10b12r(10)p7-|
|-------------------------------------------------|
|-------------------------------------------------|
|-------------------------------------------------|
|-------------------------------------------------|


   |
   /

                                      PM---|
|---------------------------------------------|
|---------------------------------------------|
|-(0)-----------------------------------------|
|-(2)--------4---------------2-----0----------|
|------------5---------------4-----2--4-----0-|
|-------------------------------------5-----2-|
|
|---------------------------------------------|
|-10b12r(10)p7-10b12r(10)p7-10b12-10-10b12-10-|
|---------------------------------------------|
|---------------------------------------------|
|---------------------------------------------|
|---------------------------------------------|


  A5
   |              |           |          |
   /              /           /          /

                                                                  PM--|
|-------------------------------------|-----------------------------------|
|-------------------------------------|-----------------------------------|
|-----------------------------0-------|-(0)-------------------------------|
|----------------/4-----------2-------|-(2)---4-----------2---0-----------|
|--4----------------------------------|-------5-----------4---2---4---0---|
|--5----------------------------------|---------------------------5---2---|
|
|-10p7--------------------------------|-----------------------------------|
|------10p7----7-10p7-----------------|-----------------------------------|
|-----------10--------9-7---7-9-7-----|-----------------------------------|
|-------------------------9-------9-7-|--7--7-9p7---------------------7-9-|
|-------------------------------------|-----------9-8-7-5-7-5---5-7s9-----|
|-------------------------------------|-----------------------7-----------|


  G5
  |          |                |
  /          /                /

|----------------------------------------|
|----------------------------------------|
|-----------------------------0----------|
|-----------/4----------------2----------|
|-2--------------------------------------|
|-3--------------------------------------|
|
|----------------------------------12-15-|
|-----------11-12-13p12----12-x-15-------|
|-7-9-11s14-------------14---------------|
|----------------------------------------|
|----------------------------------------|
|----------------------------------------|


    |
    /

                                         PM---|
|---------------------------------------------------|
|---------------------------------------------------|
|--(0)----------------------------------------------|
|--(2)-----4-----------------2-----0----------------|
|----------5-----------------4-----2-----4-----0----|
|----------------------------------------5-----2----|
|
|-(15)p12----12-15-12-15-12----12-15-12-15-12----12-|
|---------15----------------15----------------15----|
|---------------------------------------------------|
|---------------------------------------------------|
|---------------------------------------------------|
|---------------------------------------------------|


  A5
   |            |         |        |    |         |       |
   /            /         /        /    /         /       /

                                                          PM---|
|-------------------------------|--------------------------------*|
|-------------------------------|--------------------------------*|
|-------------------------0-----|-(0)----------------------------*|
|--------------/4---------2-----|-(2)---4---------5----4--2----4-*|
|--4----------------------------|-------5---------4----2---------*|
|--5----------------------------|-------------------------5----2-*|
|
|-------------------------------|--------------------------------*|
|-15-----15-------15-----15-----|-15------15-----15------15------*|
|-14b16--14b16----14b16--14b16--|-14b16---14b16--14b16---14b16---*|
|-------------------------------|--------------------------------*|
|-------------------------------|--------------------------------*|
|-------------------------------|--------------------------------*|





Comments


Popular Metallica tabs & chords
Crash Course And Brain Surgery 1 Bass Tabs
Fade To Black 3 Bass Tabs
The Call Of The Ktulu Bass Tabs
We Did It Again Bass Tabs
Attitude Tabs
Blackened 5 Tabs
Blackened Live 1 Tabs
Breadfan Tabs
My Friend Of Misery 2 Tabs
The House That Jack Built 1 Tabs


Song lyrics



↑ Back to top | Tablatures and chords are parodies/interpretations of the original songs. You may use it for private study, scholarship, research or language learning purposes only
© 2014 AZChords.com Contact us | Privacy policy | DMCA | Add/correct tabs | Request tabs | Top 50 tabs