>
 >
Eye Of The Beholder

Eye Of The Beholder Bass Tabs

Metallica - Eye Of The Beholder chords, tabs, tablatures, lyrics

Guitar lessons | Add/correct | Request | Top 50 tabs Artists:  A B C D E F G H I J K L M N O P Q R S T U V W X Y Z 0-9

Eye Of The Beholder Bass Tabs – Metallica

CD, Sheet music, Poster

Do you like Eye Of The Beholder? Share with your friends now
Bass TabsBass Tabs v2Bass Tabs v3Drum TabsTabsTabs v2Tabs v3
-------------------------------------------------------------------------------
                        EYE OF THE BEHOLDER - METALLICA
-------------------------------------------------------------------------------


Tuning: EADG

I know there are other versions but I tabbed this using live versions of this song

which has audible bass and the little that CAN BE heard on the album.
This should be as perfect as possible. Jason plays the same notes on different strings
that I use, I kind of made them easier to play.

Intro
G|---------------------------------------------------------------------------|
D|---------------------------------------------------------------------------|
A|----------------7----------------------------------------------------------|
E|--000000000-0-00-----------------------------------------------------------|

0:32-> x 4
G|---------------------------------------------------------------------------|
D|---------------------------------------------------------------------------|
A|---------------------------------------------------------------------------|
E|--000000003-3-333-222222222-2-222------------------------------------------|

0:48-> x 4
G|---------------------------------------------------------------------------|
D|---------------------------------------------------------------------------|
A|--777-------7777-----------------------------------------------------------|
E|------0-0-0-----0----------------------------------------------------------|

0:56->
G|---------------------------------------------------------------------------|
D|----------------------------------------------------------8h9p8------------|
A|----------------------------------------------------------------7h8p7------|
E|--000-0-0-777-6-6-000-0-0-777-6-6-000-0-0-777-6-6-000-0-0------------------|

1:03->
G|---------------------------------------------------------------------------|
D|----------------------------------------------------------8h9p8------------|
A|----------------------------------------------------------------7h8p8------|
E|--00000-0-777-6-6-000-0-0-777-6-6-000-0-0-777-6-6-000-0-0------------------|

G|---------------------------------------------------------------------------|
D|---------------------------------------------------------------------------|
A|---------------------------------------------------------------------------|
E|--6h7p6-2h3p3-0---------0--------------------------------------------------|

Verse riff 1:14-> x 4
G|---------------------------------------------------------------------------|
D|---------------------------------------------------------------------------|
A|---------------------------------------------------------------------------|
E|--000000003-3-333-222222222-2-222------------------------------------------|

Intro again 1:30-> x 2

Then 1:34->
G|---------------------------------------------------------------------------|
D|---------------------------------------------------------------------------|
A|---------------------------------------------------------------------------|
E|--000000003-3-333-222222222-2-222-000000003-3-333-222222222-2-222----------|

G|---------------------------------------------------------------------------|
D|---------------------------------------------------------------------------|
A|---------------------------------------------------------------------------|
E|--000000003-3-333-222222222-2-222-000000003-3-333-2--------3-2--3-2--------|

Pre-chorus 1:49-> x 6
G|---------------------------------------------------------------------------|
D|---------------------------------------------------------------------------|
A|----7---7---8---5---5-6----------------------------------------------------|
E|--0---0---0---0---0------two times, then 0-7-0-7-0-8-0-5-0-5-6--four times-|

Then 2:00
G|---------------------------------------------------------------------------|
D|---------------------------------------------------------------------------|
A|---------------------------------------------------------------------------|
E|--0---0-0-0-0---3---0-0-0-0---3---3-3-3-3----------------------------------|

2:06
G|---------------------------------------------------------------------------|
D|---------------------------------------------------------------------------|
A|---------------------------------------------------------------------------|
E|--555-333-555-333-222-333-2---0-3-2---3------------------------------------|

Chorus 2:10->
G|---------------------------------------------------------------------------|
D|---------------------------------------------------------------------------|
A|---------------------------------------------------------------------------|
E|--2---0-3-2---3---2---0-3-2---3---2-2-2-2-3-3-3-3-2---0-3-2---3------------|

G|---------------------------------------------------------------------------|
D|---------------------------------------------------------------------------|
A|---------------------------------------------------------------------------|
E|--2---0-3-2---3---2-2-2-2-3-3-3-3-2---0-3-2-3---2---0-3-2---3---2---5------|

G|---------------------------------------------------------------------------|
D|---------------------------------------------------------------------------|
A|---------------------------------------------------------------------------|
E|--0-0---0-0---0------------------------------------------------------------|

2:30->
G|---------------------------------------------------------------------------|
D|----------------------------------------------------------8h9p8------------|
A|----------------------------------------------------------------7h8p7------|
E|--000-0-0-777-6-6-000-0-0-777-6-6-000-0-0-777-6-6-000-0-0-------------6h7p6|

G|---------------------------------------------------------------------------|
D|---------------------------------------------------------------------------|
A|---------------------------------------------------------------------------|
E|-2h3p2-0-------------------------------------------------------------------|

Verse again 2:40-> x 4
Intro again 2:55-> x 2

Then 3:00->
G|---------------------------------------------------------------------------|
D|---------------------------------------------------------------------------|
A|---------------------------------------------------------------------------|
E|--000000003-3-333-222222222-2-222-000000003-3-333-222222222-2-2-2----------|

G|---------------------------------------------------------------------------|
D|---------------------------------------------------------------------------|
A|---------------------------------------------------------------------------|
E|--000000003-3-333-222222222-2-222-000000003-3-333-2--------3-2--3-2--------|

Pre-chorus again 3:16-> x 6

Then 3:25->
G|---------------------------------------------------------------------------|
D|---------------------------------------------------------------------------|
A|---------------------------------------------------------------------------|
E|--0---0-0-0-0---3---3-3-3-3---555-333-555-333-222-333-2---0-3-2---3--------|

Chorus again 3:34->

3:54->
G|---------------------------------------------------------------------------|
D|----------------------------------------------------------8h9p8------------|
A|----------------------------------------------------------------7h8p7------|
E|--000-0-0-777-6-6-000-0-0-777-6-6-000-0-0-777-6-6-000-0-0-------------6h7p6|

G|---------------------------------------------------------------------------|
D|---------------------------------------------------------------------------|
A|---------------------------------------------------------------------------|
E|--2h3p2-0------------------------------------------------------------------|

4:04
G|---------------------------------------------------------------------------|
D|---------------------------------------------------------------------------|
A|--7-------------------------------7-------------------------------7--------|
E|----0-0-0-888-6-7-0-0-0-0-7-7-6-----0-0-0-888-6-8-0-0-0-0-7-7-6-----0-0-0--|

G|---------------------------------------------------------------------------|
D|----------------------5-------------------------------5--------------------|
A|--------------------5---5-7-------------------------5---5------------------|
E|--888-6-7-0-0-0-0-7---------0-0-0-888-6-7-0-0-0-0-7------------------------|

4:20->
G|---------------------------------------------------------------------------|
D|---------------------------------5---5-------------------------------------|
A|----------101010-8-9-----------5---6---5---------101010-8-9----------------|
E|--7-7-7-7------------7-7-7-7-7-----------7-7-7-7---------------------------|

G|---------------------------------------------------------------------------|
D|--------------5------------------------------------------------------------|
A|------------5---5----------------------------------------------------------|
E|--7-7-7-7-7----------------------------------------------------------------|

Harmonized lead backing riff 4:28->
G|---------------------------------------------------------------------------|
D|------------------------------3-------------------------------3------------|
A|--5-5-5-5---------5-5-5-5---3---3-5-5-5-5---------5-5-5-5---3---3----------|
E|----------666-4-5---------5---------------666-4-5---------5----------------|

G|---------------------------------------------------------------------------|
D|------------------------------3---3-------------------------------3--------|
A|----------888-6-7-----------3---4---3---------888-6-7-----------3---3------|
E|--5-5-5-5---------5-5-5-5-5-----------5-5-5-5---------5-5-5-5-5------------|

G|---------------------------------------------------------------------------|
D|------------------------------3-------------------------------3---3--------|
A|--5-5-5-5---------5-5-5-5---3---3-5-5-5-5---------5-5-5-5---3---3---3------|
E|----------666-4-5---------5---------------666-4-5---------5----------------|

4:52->
G|---------------------------------------------------------------------------|
D|---------------------------------------------------------------------------|
A|----------------------------------555-333-222-333-5-5-3-3-2-2--------------|
E|--555-666-333-555-777-555-444-555-----------------------------3-3----------|

Solo backing 5:00-> x 7
G|---------------------------------------------------------------------------|
D|---------------------------------------------------------------------------|
A|---------------------------------------------------------------------------|
E|--2---0-3-2---3----(Fourth time first "2" is replaced by open E)-----------|

Then 5:14
D|---------------------------------------------------------------------------|
A|---------------------------------------------------------------------------|
E|---------------------------------------------------------------------------|
G|--2-2-2-2------------------------------------------------------------------|

5:16->
D|---------------------------------------------------------------------------|
A|---------------------------------------------------------------------------|
E|---------------------------------------------------------------------------|
G|--000000003-3-333-222222222-2-222-000000003-3-333-222222222-2-2-2----------|

D|---------------------------------------------------------------------------|
A|---------------------------------------------------------------------------|
E|---------------------------------------------------------------------------|
G|--000000003-3-333-222222222-2-222--000000003-3-333-2--------3-2--3-2-------|

Pre-chorus 5:31-> x 6

Then 5:40
D|---------------------------------------------------------------------------|
A|---------------------------------------------------------------------------|
E|---------------------------------------------------------------------------|
G|--0---0-0-0-0---3---0-0-0-0---555-333-555-333-222-333-2---0-3-2---3--------|

Chorus again 5:49->
Pre-chorus 6:08 -> x 4

Then 6:16->
D|---------------------------------------------------------------------------|
A|---------------------------------------------------------------------------|
E|---------------------------------------------------------------------------|
G|--0---0-0-0-0--------------------------------------------------------------|

6:18->
D|---------------------------------------------------------------------------|
A|---------------------------------------------------------------------------|
E|----7---7---8---5---5-6---7---7---8---5---5-6------------------------------|
G|--0---0---0---0---0-----0---0---0---0---0-----0---0-0-0-0-----0------------|

6:26->
D|---------------------------------------------------------------------------|
A|---------------------------------------------------------------------------|
E|---------------------------------------------------------------------------|
G|---3---0-0-0-0-0-0-0-0-0-0-0-----------------------------------------------|

| /  slide up
| \  slide down
| h  hammer-on
| p  pull-off
| ~  vibrato
| +  harmonic
| x  Mute note
===============================================================================





Comments


Popular Metallica tabs & chords
London Dungeon 1 Bass Tabs
Blackened Chords
Am I Evil 3 Tabs
Creeping Death (Solo) Tabs
Enter Sandman 1 Tabs
Enter Sandman No Tabs
Guitar Solo Live In Texas Tabs
Invisible Kid 2 Tabs
Ronnie 2 Tabs
Whiskey In The Jar 2 Tabs


Song lyrics



↑ Back to top | Tablatures and chords are parodies/interpretations of the original songs. You may use it for private study, scholarship, research or language learning purposes only
© 2014 AZChords.com Contact us | Privacy policy | DMCA | Add/correct tabs | Request tabs | Top 50 tabs