» » »

Metallica, Escape Tabs (ver.1)

Artists:  A B C D E F G H I J K L M N O P Q R S T U V W X Y Z # 

Escape Tabs (ver.1)

Metallica Tabs
 Rating:
4/5 (4 votes)
Escape lessons Tabs too difficult? Try these video lessons and learn fast
                Metallica (Ride the Lightning)



Tuning E

Beginning Riff:
                    Two guitars....
|----------------------------------------------------------|
|----------------------------------------------------------|
|--------------------4-5-----4--------5--4--5--4-----------|
|--7-----------------5h7-----5--------7--5--7--5--7-----5--|
|--0--0--0--0--0--0-------------------------------8-----7--|
|----------------------------------------------------------|

Beginning and after chorus...
|------------------------|----------------------------|
|------------------------|----------------------------|
|----------------------4-|----------------8--7--5--7--|
|-7--------------------5-|----------------------------|
|-0--0--0--0--0--0--0----|-0--0--0--0-----6--5--3--5--|
|------------------------|----------------------------|

Verse Riff
|----------------------------------------------|
|----------------------------------------------|
|----------------------------------------------|
|----------------------------------------------|
|-4--4--4--4--4--4--4--4--4--4--4--4--4--5555--|
|-2--2--2--2--2--2--2--2--2--2--2--2--2--3333--|

Chorus
|-------------------------------------------------------------------|
|-------------------------------------------------------------------|
|----------------------------------------------------------------2--|
|-------------------------------------------------------------4-----|
|-7--------------------5--------------------4--------------4--------|
|-5--------------0--5--3--------------0--3--2-----------2-----------|

"See them try to bring the hammer..." bit
|-------------------------------------|
|-------------------------------------|
|-------------------------------------|
|-------4--2--------------------------|
|-4--4--2--0--4--4--5--5--2--2--5--5--|
|-2--2--------2--2--3--3--0--0--3--3--|
That's it guys
            
Submit corrections

comments powered by Disqus
↑ Back to top | Metallica Tabs for Escape. Lyrics for acoustic guitar and electric guitar. Tablatures and chords are parodies/interpretations of the original songs. You may use it for private study, scholarship, research or language learning purposes only