» » »

Entersandman Tabs (ver.1)

Artists:  A B C D E F G H I J K L M N O P Q R S T U V W X Y Z # 

Entersandman Tabs (ver.1)

Metallica
Rating:
0/5 (0 votes)

Tabs too difficult? Try these video lessons and learn fast.
                (Complete)
Hey everone. There are a few tabs for this going about but none of them
appear to be 100% correct. I took this on from the Black Album Tab book
so this is the way Hammet plays the solo. I've also put in the rhythm
guitar part as well for those who may need it.
Enjoy.
Callum Dewar, Forfar.

          E5                   A5                   F#5
      0 2 x x x x          x 0 2 2 x x          2 4 x x x x

Gtr III (E A D G B E) - 'Guitar 3'
Gtr IV (E A D G B E) - 'Guitar 4'

 Guitar Solo
  Gtr III
   E  E  E  E  E       Q    a     E    +E   E  E  E  a  Q   a  Q
|-----------------------------------|------------------------------|
|-15-15-15-12---------12------------|------12-12----15h17--15h17---|
|-------------14b14.5------14b16r16-|-(16)-------14----------------|
|-----------------------------------|------------------------------|
|-----------------------------------|------------------------------|
|-----------------------------------|------------------------------|
|
| Gtr IV
|              ~~~~~~~   PM                             ~~     PM
|  E  E  E  E  Q         E        E    +E   E  E  E     Q      E E
|-----------------------------------|------------------------------|
|-----------------------------------|------------------------------|
|-----------------------------------|------------------------------|
|-----------------------------------|------------------------------|
|--2--2-/7------------------------2-|--(2)--2-/7-----------------2-|
|--0--0-----6--5---------0--------0-|--(0)--0-----6-----5------0-0-|


   S   S  S  S  S  S  S  S  S  S  S  S  S  S  S  S
|----------------------------------------------------|
|----------------------------------------------------|
|-12--14-14-14-14-12-12-12-12-14-14-14-14-12-12-12---|
|----------------------------------------------------|
|----------------------------------------------------|
|----------------------------------------------------|
|
|                           ~~          PM
| +E      E     E     E     Q           E     E
|----------------------------------------------------|
|----------------------------------------------------|
|----------------------------------------------------|
|----------------------------------------------------|
|-(2)-----2----/7-----------------------------5------|
|-(0)-----0-----------6-----5-----------0-----3------|


                              ~~~
   S  S  E  S  S  E  S  S  E  Q
|----------------------------------|
|----------------------------------|
|-14p12----------------------------|
|-------14-14p12-------------------|
|----------------14-14p12s10-------|
|----------------------------12\---|
|
|        PM------------------|
|  E     E  E     E  E     E  E  E
|----------------------------------|
|----------------------------------|
|----------------------------------|
|----------------------------------|
|--5--------4--------4-----5--4--2-|
|--3-----0--2-----0--2-----3--2--0-|


   a     S   S  S  S  a     S  S  S  S  a     S  S  S  S  a     S  S  S  S
|-----------12-12-12----------12-12-12----------12-12-12----------12-12-12----|
|-15b17r17-----------15b17r17----------15b17r17----------15b17r17-------------|
|-----------------------------------------------------------------------------|
|-----------------------------------------------------------------------------|
|-----------------------------------------------------------------------------|
|-----------------------------------------------------------------------------|
|
|                                             ~~                PM
|       +E      E           E     E           Q                 E     E
|-----------------------------------------------------------------------------|
|-----------------------------------------------------------------------------|
|-----------------------------------------------------------------------------|
|-----------------------------------------------------------------------------|
|-------(2)-----2----------/7-----------------------------------------2-------|
|-------(0)-----0-----------------6-----------5-----------------0-----0-------|


   a  S  S  S  T  T  E  T  T  S  T  T  S  S  S  S  S  S  S
|-------12-12-12h15p12-12h15p12-12h15p12-12-15-12-12-14-14-|
|-15-17----------------------------------------------------|
|----------------------------------------------------------|
|----------------------------------------------------------|
|----------------------------------------------------------|
|----------------------------------------------------------|
|
|                                ~~~            PM
|     E     E        E  E        Q              E     E
|----------------------------------------------------------|
|----------------------------------------------------------|
|----------------------------------------------------------|
|----------------------------------------------------------|
|-----2-----2-------/7--------------------------------2----|
|-----0-----0-----------6--------5--------------0-----0----|


   S   S  S  S  S  S  S  S  S  S  S  S  S  S  S  S
|-17p=14----17p14----17p14-19p15----19p15----19p15-|
|--------15-------15-------------17-------17-------|
|--------------------------------------------------|
|--------------------------------------------------|
|--------------------------------------------------|
|--------------------------------------------------|
|
|                           ~~~         PM
| +E      E     E     E     Q           E     E
|--------------------------------------------------|
|--------------------------------------------------|
|--------------------------------------------------|
|--------------------------------------------------|
|-(2)-----2----/7-----------------------------5----|
|-(0)-----0-----------6-----5-----------0-----3----|


   S   S  S  S  S  T  T  S  S  a  Q    +E  a  E
|-21p=17----21p17----21p17----22-24---(24)------||
|--------17-------17-------17--------------9h10-||
|------------------------------------------9h11-||
|-----------------------------------------------||
|-----------------------------------------------||
|-----------------------------------------------||
|
| +E      E     E        E        E E   E     E
|-----------------------------------------------||
|-----------------------------------------------||
|-----------------------------------------------||
|-----------------------------------------------||
|-(5)-----------4-----------------4-5---4-----2-||
|-(3)-----0-----2--------0--------2-3---2-----0-||


                                             ~~
   +Q    a  Q    E Q.       a  Q    a  Q   S E. S S S  S
|-------------------------|--------------------------------|
|-(10)---9h10---10-9------|-9h10----9h10--------------10---|
|-(11)---9h11---11-9------|-9h11----9h11---7--------7------|
|-------------------------|------------------9--7-9--------|
|-------------------------|--------------------------------|
|-------------------------|--------------------------------|
|
|   E  E    E E  Q    E E     +E  E    E E Q    E   E
|-------------------------|--------------------------------|
|-------------------------|--------------------------------|
|-----------2-------------|------------2-------------------|
|------4--------------4---|-------4-------------4----------|
|-------------3--2--------|--------------3-2---------------|
|---2-------------------2-|---(2)-------------------2------|


    ~~~~
   +Q     S S S S a S S S S S S S S    S  S S S S S S S S S S  S  E  E
|-----------------------------------|----------------------------------|
|-(10)---10-8-7---7S8S7---7---------|----------------------------------|
|---------------9-------9---9-7---7-|--9p=7----------------------------|
|-------------------------------9---|-------9p7---7-9-7----------------|
|-----------------------------------|-----------9-------9-8-7----------|
|-----------------------------------|-------------------------10--7----|
|
|   E  E  E   E     Q       E   E     +E    E   E   E   Q         Q
|-----------------------------------|----------------------------------|
|-----------------------------------|----------------------------------|
|---------2-------------------------|-----------2----------------------|
|------4--------------------4-------|-------4--------------------------|
|-------------3-----2---------------|---------------3---2--------------|
|---2---------------------------2---|-(2)------------------------14\---|


                            ~~
   a  E  E  E.    S  a  E   E  E.    S
|-----------------------------------------|
|-----------------------------------------|
|-16-18-14-------14-16-18--14-------14----|
|----------16-----------------16----------|
|-----------------------------------------|
|-----------------------------------------|
|
|     Q     E  E        Q.        E
|-----------------------------------------|
|-----------------------------------------|
|-----------------------------------------|
|-----------------------4-----------------|
|-----4-----4--3--------2---------4-------|
|-----2---------------------------2-------|


   a  E   E  E.    S  a  E   E  E  S  S
|---------------------------------------|
|---------------------------------------|
|-16-18--14-------14-16-18--14-------14-|
|-----------16-----------------16-16----|
|---------------------------------------|
|---------------------------------------|
|
|    +Q      E  E        Q.        E
|---------------------------------------|
|---------------------------------------|
|---------------------------------------|
|------------------------4--------------|
|----(4)-----4--3--------2---------4----|
|----(2)---------------------------2----|


   a  E  S  a  S  +S   S  a  E  +Q    E  a  E
|---------------------------------------------|
|-------17------------17-------------17-------|
|-16-18----16-18-(18)----16-18-(18)-----16-18-|
|---------------------------------------------|
|---------------------------------------------|
|---------------------------------------------|
|
|     Q            E         E   H
|---------------------------------------------|
|---------------------------------------------|
|---------------------------------------------|
|--------------------------------4------------|
|-----4------------4---------3---2------------|
|-----2---------------------------------------|


         \2/  \2/  \2/  \2/  \2/  \2/
   +Q    E    E    E    E    E    E
|-------------------------------------|
|-------------------------------------|
|-(18)--18---18---18---18---18---18---|
|-------------------------------------|
|-------------------------------------|
|-------------------------------------|
|
|   Q    Q         Q         E    E
|-------------------------------------|
|-------12--------12--------12--------|
|-------12--------12--------12--------|
|--------------------------------14\--|
|-------------------------------------|
|-------------------------------------|


   S  S  S  S  S  S  T  T  S  S   S  S  S  S  S  T  T  S
|-21-17----21-17----21-17----21--17----21-17----21-17----|
|-------17-------17-------17--------17-------17-------17-|
|--------------------------------------------------------|
|--------------------------------------------------------|
|--------------------------------------------------------|
|--------------------------------------------------------|
|
|  Q           E     E        Q.                 E
|--------------------------------------------------------|
|--------------------------------------------------------|
|--------------------------------------------------------|
|-----------------------------4--------------------------|
|--4-----------4-----3--------2------------------4-------|
|--2---------------------------------------------2-------|


                                              |-3--|
   a  E  S  S  a  E  S  S  a  Q    +Q      E  S S  S E S S E S S E a E
|-22-24-24-24-22-24-24-24-22-24---(24)---|-----------------------------|
|----------------------------------------|-----------------------------|
|----------------------------------------|---10-8--7-------------------|
|----------------------------------------|-----------9-9-7-------------|
|----------------------------------------|-----------------9-9-7-5-7-9-|
|----------------------------------------|-----------------------------|
|
|     Q           E  E        Q.       E   E  E H.
|----------------------------------------|-----------------------------|
|----------------------------------------|-----------------------------|
|----------------------------------------|-----------------------------|
|-----------------------------4----------|-----------------------------|
|-----4-----------4--3--------2--------4-|-2---------------------------|
|-----2--------------------------------2-|-0---------------------------|


                                         \2/  \2/  \2/  \2/  \2/  \2/
  S E. +Q  +Q. S S   H     +Q.   E   Q  +E   +E   +E   +E   +E   +E
|------------------|---------------|----------------------------------|
|------------------|---------------|----------------------------------|
|------------------|---------------|----------------------------------|
|-5----------------|---------------|----------------------------------|
|---7--(7)-(7)-5-7-|-4-----(4)---0-|-2--(2)--(2)--(2)--(2)--(2)--(2)--|
|------------------|---------------|----------------------------------|
|
|       W                W               W
|------------------|---------------|----------------------------------|
|------------------|---------------|----------------------------------|
|------------------|---------------|----------------------------------|
|------------------|---------------|----------------------------------|
|------------------|---------------|----------------------------------|
|------------------|---------------|----------------------------------|


   \2/  \2/  \2/  \2/  \2/  \2/  \2/  \2/
  +E   +E   +E   +E   +E   +E   +E   +E
|------------------------------------------||
|------------------------------------------||
|------------------------------------------||
|------------------------------------------||
|-(2)--(2)--(2)--(2)--(2)--(2)--(2)--(2)---||
|------------------------------------------||
|
|            W
|------------------------------------------||
|------------------------------------------||
|------------------------------------------||
|------------------------------------------||
|------------------------------------------||
|------------------------------------------||


Duration Legend
---------------
W - whole; H - half; Q - quarter; E - 8th; S - 16th; T - 32nd; X - 64th; a - acciaccatura
+ - note tied to previous; . - note dotted; .. - note double dotted
Uncapitalized letters represent notes that are staccato (1/2 duration)
Irregular groupings are notated above the duration line
Duration letters will always appear directly above the note/fret number it represents the
duration for.  Duration letters with no fret number below them represent rests.  Multi-
bar rests are notated in the form Wxn, where n is the number of bars to rest for.  Low
melody durations appear below the staff

Tablature Legend
----------------
 h   - hammer-on
 p   - pull-off
 b   - bend
 pb  - pre-bend
 r   - bend release (if no number after the r, then release immediately)
 /\  - slide into or out of (from/to "nowhere")
 s   - legato slide
 S   - shift slide
<n>  - natural harmonic
[n]  - artificial harmonic
n(n) - tapped harmonic
 ~   - vibrato
 tr  - trill
 T   - tap
 TP  - trem. picking
 PM  - palm muting
\n/  - tremolo bar dip; n = amount to dip
 \n  - tremolo bar down
 n/  - tremolo bar up
/n\  - tremolo bar inverted dip
 =   - hold bend; also acts as connecting device for hammers/pulls
 <>  - volume swell (louder/softer)
 x   - on rhythm slash represents muted slash
 o   - on rhythm slash represents single note slash

Misc Legend
-----------
 |  - bar
||  - double bar
||o - repeat start
o|| - repeat end
*|  - double bar (ending)
 :  - bar (freetime)
 $  - Segno
 &  - Coda
Tempo markers - <E/E./Q/Q./H/H.> = BPM(8/16=s8/s16), where s8 = swing 8ths, s16 = swing 16ths
            
Tabs too difficult? Try these video lessons and learn fast.




comments powered by Disqus
↑ Back to top | Tablatures and chords are parodies/interpretations of the original songs. You may use it for private study, scholarship, research or language learning purposes only