>
 >
Electric Remote

Electric Remote Guitar Tabs

Metallica - Electric Remote chords, tabs, tablatures, lyrics

Guitar lessons | Add/correct | Request | Top 50 tabs Artists:  A B C D E F G H I J K L M N O P Q R S T U V W X Y Z 0-9

Electric Remote Guitar Tabs – Metallica

CD, Sheet music, Poster

Do you like Electric Remote? Share with your friends now
Tabs
This is a dumb song that Metallica must have quickly wrote on a bus or 
something.They played it live one night and I just found it on some site 
and thought it would be cool to tab and let people know that it exists.
  It is called Electric Remote.

E----------------------------------------------------------------------|
B----------------------------------------------------------------------|
G----------------------------------------------------------------------|
D----------------------------------------------------------------------|
A--4-4-4-4-4-4-4-4-4-4-4-4-4-4-4-4-4-4-4-4-4-4-4-4-4-4-4-4-4-4-4-4-4-4-|
E--2-2-2-2-2-2-2-2-2-2-2-2-2-2-2-2-2-2-2-2-2-2-2-2-2-2-2-2-2-2-2-2-2-2-|
p.m. . . . . . . . . . . . . . . . . . . . . . . . . . . . . . . . . . 

E--------------------------------0-0-0-0-0-0-0-0-0-|
B--------------------------------0-0-0-0-0-0-0-0-0-|
G--------------------------------0-0-0-0-0-0-0-0-0-|
D--------------3-4-5-------------0-0-0-0-0-0-0-0-0-|
A--------------2-3-4-------------0-0-0-0-0-0-0-0-0-|
E--2p0-2p0-2p0-------2p0-2p0-2p0-0-0-0-0-0-0-0-0-0-|

Verse:
E--------------------------------|
B--------------------------------|
G--------------------------------|
D------------6/8---9--10--11-(0)-|
A------------4/6---7---8---9--0--|
E--2-2-2-2-2-4---0---0---0----0--|

Chorus:
E----0-0-0-0-0-0-0-0-0-0-0--|
B----x-x-x-x-x-x-x-x-x-x-x--|
G----4-5-6-7-8-9-9-9-0-0-0--|
D----x-x-x-x-x-x-x-x-x-x----|
A--0-2-3-4-5-6-7-8-9-0-0-0--|
E--0-x-x-x-x-x-x-x-x-x-x-x--|


Lyrics:

Verse 1:
One day I died
with grease in my butt
and a boot happened

What a heap day
I te' yeself
doelkaj if bohj ( japanese )

Chorus:
This guy told me he found a remote
I told him, yeah i bet
he said look at it
I did
it was cool
i touched it
it shocked me
it was electric
it was a surprise
oh how i died
that day, when i died
and some guy told me he found a remote

Verse 2:
Oh how I screamed at the torture
it pained like he'
and then i told him butt
and he got fierce

i was fierce too
we pulled knives on each other
and then on ourselves
we were both trouts and carps

we pulled the trigger on the knives
the went "SHLEIKORAMEEDADHEAD"
we screamed at the commotion
and the funny part is that this happened on a train



Thats it.  It sounds like I made it up, but I plomise that I didn't. (whut)
It's pretty hard if ya know how fast to play it.  Its pretty dern fast.
te' ye.
But I tell ye whut, if I ever made a song like that, it might exist.

BYE BYE





Comments


Popular Metallica tabs & chords
Astronomy Bass Tabs
Fade To Black 3 Bass Tabs
Eye Of The Beholder Drum Tabs
Battery 2 Tabs
Blackened Live Tabs
Breadfan 2 Tabs
Death Is Not The End Intro Tabs
Orion 1 Tabs
Saint Anger Tabs
The Shortest Straw 1 Tabs


Song lyrics



↑ Back to top | Tablatures and chords are parodies/interpretations of the original songs. You may use it for private study, scholarship, research or language learning purposes only
© 2014 AZChords.com Contact us | Privacy policy | DMCA | Add/correct tabs | Request tabs | Top 50 tabs