» » »

Don't Tread On Me Tabs (ver.4)

Artists:  A B C D E F G H I J K L M N O P Q R S T U V W X Y Z # 

Don't Tread On Me Tabs (ver.4)

Metallica
Rating:
0/5 (0 votes)

Hard to play? Try these video lessons and learn fast.
                (Intro)
Band: Metallica
Released: 1991

Thought I would write this tab up and post it. 

This song has never been performed live by Metallica 
because of James' dislike of the song. 

Intro

All Guitars
e|---------------------------------------------------------------------|
B|---------------------------------------------------------------------|
G|---------------------------------------------------------------------|
D|---------------------------------------------------------------------|
A|--2---2---2-----2--2----------------2---2---2-----2--2---------------|
E|--0---0---0-----0--0----------------0---0---0-----0--0---------------|

Then this

Guitar 1 0:04
e|---------------------------------------------------------------------|
B|---------------------------------------------------------------------|
G|---------------------------------------------------------------------|
D|--------------------------------------------------4--4---------------|
A|--2---2---2-----2--2----------------2---2---2-----2--2---------------|
E|--0---0---0-----0--0----------------0---0---0------------------------|

Guitar 2
e|---------------------------------------------------------------------|
B|---------------------------------------------------------------------|
G|---------------------------------------------------------------------|
D|-------2-2-2------------------------------2-2-2-4--------------------|
A|-2-2-2-------4----------------------2-2-2----------6-----------------|
E|----------------5--0----------------------------------7--------------|

Guitar 3
e|---------------------------------------------------------------------|
B|---------------------------------------------------------------------|
G|-------9-9-9------------------------------9-9-9-11-------------------|
D|-9-9-9-------11---------------------9-9-9----------13----------------|
A|----------------12------------------------------------14-------------|
E|-------------------12------------------------------------------------|


Guitar 1 0:09
e|---------------------------------------------------------------------|
B|---------------------------------------------------------------------|
G|---------------------------------------------------------------------|
D|--7---7---7-----7--7-------------------------------------------------|
A|--5---5---5-----5--5----------------3---3---3-----2--2---------------|
E|------------------------------------1---1---1-----0--0---------------|

Guitar 2
e|---------------------------------------------------------------------|
B|---------------------------------------------------------------------|
G|---------------------------------------------------------------------|
D|-------5-5-5-4--------------------------------------2----------------|
A|-5-5-5----------5-------------------------3-3-3--2-----2-------------|
E|-------------------5----------------3-3-3----------------------------|

Guitar 3
e|---------------------------------------------------------------------|
B|---------------------------------------------------------------------|
G|---------12-12-12-11-----------------------------------9-------------|
D|12-12-12-------------12---------------------10-10-10-9---9-----------|
A|------------------------12---------10-10-10--------------------------|
E|---------------------------------------------------------------------|

Started 18th of July
Finished 18th of July
            
Hard to play? Try these video lessons and learn fast. | Correct




comments powered by Disqus
↑ Back to top | Tablatures and chords are parodies/interpretations of the original songs. You may use it for private study, scholarship, research or language learning purposes only