>
 >
Dirty Window 4

Dirty Window 4 Guitar Tabs

Metallica - Dirty Window 4 chords, tabs, tablatures, lyrics

Guitar lessons | Add/correct | Request | Top 50 tabs Artists:  A B C D E F G H I J K L M N O P Q R S T U V W X Y Z 0-9

Dirty Window 4 Guitar Tabs – Metallica

CD, Sheet music, Poster

Do you like Dirty Window 4? Share with your friends now
Bass TabsBass Tabs v2Drum TabsTabsTabs v2Tabs v3Tabs v4Tabs v5
Tuning: C# Tuning (C#, G#, C#, F#, A#, D#)
Notes: Alright... This is for all U Tallica Faithfuls... AN' for n e one who
doesn't have St.Anger yet... WHAT IS WRONG WITH U... It rocks!!! If these aren't
perfect then they're pretty damn close!!! The only part I think mite be a bit
weird is the "gavel" part... N E Way here's a big ROCK ON to all of the faithful
metal militia dudes out there...

INTRO
|----------------------------|-----|----------------------------|-----|
|----------------------------|--R--|----------------------------|--R--|
|----------------------------|--E--|----------------------------|--E--|
|----x-x-x-x-x--x--x-x--x----|--S--|----x-x-x-x-x--x--x-x--x----|--S--|
|----x-x-x-x-x--x--x-x--x----|--T--|----x-x-x-x-x--x--x-x--x----|--T--|
|----x-x-x-x-x--x--x-x--x----|-----|----x-x-x-x-x--x--x-x--x----|-----|

PM Riff(x4)
|----------------------------|
|----------------------------|
|----------------------------|
|----x-x-x-x-x--x--x-x--x----|
|----x-x-x-x-x--x--x-x--x----|
|----x-x-x-x-x--x--x-x--x----|

Verse Riff(Whole thing x2)
|x5.....................................|6th time..............|
|---------------------------------------|----------------------|
|---------------------------------------|----------------------|
|---------------------------------------|----------------------|
|---------------------------------------|----------------------|
|-------------------------------5-------|--3~~--3-3/5~~5~~5~---|
|--0--3--5---0--3--5---0--3--5----6--5--|--3~~--3-3/5~~5~~5~---|
(The first note of this is played right on the last mute of the intro)

THE BUILD (Consists of the next 4 lines of tab up to the end of the "gavel" part)
(x2)
|----------------------------------------|
|----------------------------------------|
|----------------------------------------|
|-------------------------------7--------|
|--0--3--5---0--3--5---0--3--5--5--6--5--|
|--0--3--5---0--3--5---0--3--5-----6--5--|
   pm..................................|

(x2 - The mutes in this are just with the snare and I dunno how u'd interpret them)
|-------------------------------------------|
|-------------------------------------------|
|-------------------------------------------|
|--0--3--5---x--x--x-x-x-x---0--3--5--6br~~~|
|--0--3--5---x--x--x-x-x-x---0--3--5--6br~~~|
|--0--3--5---x--x--x-x-x-x---0--3--5--6br~~~|

Then... (OK... this is it... I hope...)
|------------------------------|------------------------------|
|------------------------------|------------------------------|
|------------------------------|------------------------------|
|--0--3--5------0--3--5--6br~~~|--3--6--8--3---3--6--8--9br~~~|
|--0--3--5------0--3--5--6br~~~|--3--6--8--3---3--6--8--9br~~~|
|--0--3--5------0--3--5--6br~~~|--3--6--8--3---3--6--8--9br~~~|

|----------------------------------|
|----------------------------------|
|----------------------------------|   Gavel part with the pm'd part...
|--3--6--8--3---3--5--6---3--5--6--|
|--3--6--8--3---3--5--6---3--5--6--|
|--3--6--8--3---3--5--6---3--5--6--|
                pm...............|

Main riff (x2)
|---------------------------------------|
|---------------------------------------|
|---------------------------------------|
|---------------------------------------|
|-------------------------------5-------|
|--0--3--5---0--3--5---0--3--5----6--5--|

Clean Riff (x2)
|---------------------------------------------------------------|
|---------------------------------------------------------------|
|---------------------------------------------------------------|
|--7------7-------5/8-7~-5/7------------------------------------|
|-------8----10-------------------------------------------------|
|---------------------------------------------------------------|
| Bass part... clean bassy guitar
|---------------------------------------------------------------|
|---------------------------------------------------------------|
|---------------------------------------------------------------|
|---------------------------------------------------------------|
|-------------------------------------------------------7-------|
|--------------------------0--3--5---0--3--5---0--3--5----6--5--|

Projector riff
|--------------------------------------------------------------|
|--------------------------------------------------------------|
|--------------------------------------------------------------|
|--0--3--5--0----0--3--5--0----0--3--5-----6--5----0--3--5--0--|
|--0--3--5--0----0--3--5--0----0--3--5--5--6--5----0--3--5--0--|
|--0--3--5--0----0--3--5--0----0--3--5-----6--5----0--3--5--0--|

|--------------------------------------------------------------------|
|--------------------------------------------------------------------|
|--------------------------------------------------------------------|
|--0--3--5--0----0--3--5--0----0--3--5-----6--5----0--3--5-----6--5--|
|--0--3--5--0----0--3--5--0----0--3--5--5--6--5----0--3--5--5--6--5--|
|--0--3--5--0----0--3--5--0----0--3--5-----6--5----0--3--5-----6--5--|

PM riff (x2)
Verse Riff (x1)
The Build (x1)
Main Riff (x2)
Clean Riff (x2)
Projector riff (x1)
PM Riff (one guitar - x4)
PM Riff (2 Guitars - x14)
Main Riff (x2)
Clean Riff (x2)
Projector Riff (x1)
PM Riff (One guitar - x2)
PM Riff (2 Guitars - x22)

Death threats... whateva... just e-mail!!!
By the way... if u wanna play this to the DVD then U have to tune down to C
instead of C#... k... WHIPLASH!!!!!





Comments


Popular Metallica tabs & chords
Broken Beat And Scarred Bass Tabs
For Whom The Bell Tolls 2 Bass Tabs
Hit The Lights Bass Tabs
Battery Drum Tabs
Carol Of The Bells 1 Tabs
Cretin Hop Tabs
Enter Sandman 10 Tabs
In Memory Of Cliff Tabs
King Nothing Tabs
Nothing Else Matters Unplugged Tabs


Song lyrics



↑ Back to top | Tablatures and chords are parodies/interpretations of the original songs. You may use it for private study, scholarship, research or language learning purposes only
© 2014 AZChords.com Contact us | Privacy policy | DMCA | Add/correct tabs | Request tabs | Top 50 tabs