» » »

Die Die My Darling Bass tabs (ver.5)

Artists:  A B C D E F G H I J K L M N O P Q R S T U V W X Y Z # 

Die Die My Darling Bass tabs (ver.5)

Metallica
Rating:
0/5 (0 votes)

Hard to play? Try these video lessons and learn fast.
                Metallica - Die, die die my darling

R - rest
1,2,3,4,16,32 - Beat duration  ;)
() - let ring
s - slide

Tempo=200

Intro                    
                                  repeat this sh*t x3
    8 8 8 8 8 8 8 8   8 8 8 8 8 8 4     1       1 
G||-----------------|---------------|-------|-------|
D||-----------------|---------------|-------|-------|
A||-----------------|---------------|---3---|---2---|
E||-0-R-0-R-0-R-0-R-|-0-R-0-R-0-R-0-|-------|-------|
 
      1     8 8 8 8 8 8 8     1     8 8 8 8 8 8 8 8   8 8 2.
G||-------|---------------|-------|-----------------|-------|
D||-------|---------------|-------|-----------------|-------|
A||---0---|---------------|---0---|-3-3-3-3-3-3-3-3-|-3-3-R-|
E||-------|-0-0-0-0-0-0-0-|-------|-----------------|-------|

Riff 
                                      x6
    8 8 8 8 8 8 8 8     1       2   2   
G||-----------------|-------|-----------|
D||-----------------|-------|-----------|
A||-----------------|---3---|-----------|
E||-0-0-0-0-0-0-0-0-|-------|---3---2---|


then repeat 
INTRO
RIFF
INTRO
then
Outro

    8 8 8 8 8 8 8 8   8 8 8 8 8 8 4     1       1 
G||-----------------|---------------|-------|---------|
D||-----------------|---------------|-------|---------|
A||-----------------|---------------|-------|---14s---|
E||-0-R-0-R-0-R-0-R-|-0-R-0-R-0-R-0-|--(0)--|---------|


This is f**king easiest Metallica song 
            
Hard to play? Try these video lessons and learn fast. | Correct




comments powered by Disqus
↑ Back to top | Tablatures and chords are parodies/interpretations of the original songs. You may use it for private study, scholarship, research or language learning purposes only