» » »

Cunning Stunts Doodle Tabs (ver.1)

Artists:  A B C D E F G H I J K L M N O P Q R S T U V W X Y Z # 

Cunning Stunts Doodle Tabs (ver.1)

Metallica
Rating:
0/5 (0 votes)

Hard to play? Try these video lessons and learn fast.
                1)
eb--------------------------------5~~----------5~~----------
Bb------------5~~----5~~-------------5~~----------5~~-------
Gb---------5~~----------7~~5~~7~~~------5~~----------5~~7~~~
Db--7~~~7~~------7~~~----------------------7~~~-------------
Ab----------------------------------------------------------
Eb----------------------------------------------------------
guitar riff (neck pickup overdriven w/ wah) (MFoM)


                              full
2)                             ^V
eb----------------------------------------------
Bb--------5~~-----------------------------------
Gb-----5~~------5~-------------7-5-------------5
Db--7~~------7~~--5~~~---------7-5----------/7--
Ab-----------------------2~~----------2~~-------
Eb--------------------3~~---5~~----3~~---5~~----


3)
eb-----------8h9p8h9p8\-------------------------
Bb----------------------------------------------
Gb------------------------------------------9~~-
Db------------------------------------6~~9~~----
Ab-----2~~----------------2~~------7~~----------
Eb--3~~---5~~----------3~~---0--7~~------------0



4)    harm*               *****             *****  *****  ***   ********
eb----12-----3--3h5p3p2---12-----2-2-3-0----12-----12-----7-----12------
Bb-------12-----0------------12----0-----------12-----12----7------12---
Gb--------------------------------------------------------------------12
Db----------------------------------------------------------------------
Ab----------------------------------------------------------------------
Eb--0--------------------0----------------0-------0-----0-----0---------
Clean guitar


5)
eb-----------------------------------------
Bb-----------------------------------------
Gb--------0-------0-------0----------------
Db------4-------5-------7-------0-----0---0
Ab----2-------3-------5-------4-----2------
Eb--0-------0-------0-------5-----3-----5--
            
Hard to play? Try these video lessons and learn fast. | Correct




comments powered by Disqus
↑ Back to top | Tablatures and chords are parodies/interpretations of the original songs. You may use it for private study, scholarship, research or language learning purposes only