>
 >
Cretin

Cretin Guitar Tabs

Metallica - Cretin chords, tabs, tablatures, lyrics

Guitar lessons | Add/correct | Request | Top 50 tabs Artists:  A B C D E F G H I J K L M N O P Q R S T U V W X Y Z 0-9

Cretin Guitar Tabs – Metallica

CD, Sheet music, Poster

Do you like Cretin? Share with your friends now
TabsTabs v2


                                                                                             

e:--------------------|
B:--------------------|
G:-----9--------------|
D:-7/9-7-9-9-9-9-9-9--|
A:-5/7---7-7-7-7-7-7--|
E:--------------------|

e:-----------------------------------|
B:-----------------------------------|
G:-----------------------------------|
D:---------------------7-7-7-7-7-7-7-|
A:-2--7--2--2-2-2-2-2--5-5-5-5-5-5-5-|
E:-0--5--0--0-0-0-0-0----------------|

e:-----------------------------------|
B:-----------------------------------|
G:-----------------------------------|
D:---------------------7-7-7-7-7-7-7-|
A:-2--7--2--2-2-2-2-2--5-5-5-5-5-5-5-|
E:-0--5--0--0-0-0-0-0----------------|

  There's no stoppin' the cretins from hoppin'
e:-------------------------------------------------------|
B:-------------------------------------------------------|
G:-2-----------------------------------------------------|
D:-2-----------------------------------------------------|
A:-0---------------------------------------2-2-2-2-2-2-2-|
E:-----------------------------------------0-0-0-0-0-0-0-|

You gotta keep it beatin' for all the hoppin' cretins
e:-------------------------------------------------------|
B:-------------------------------------------------------|
G:-2-----------------------------------------------------|
D:-2-----------------------------------------------------|
A:-0---------------------------------------2-2-2-2-2-2-2-|
E:-----------------------------------------0-0-0-0-0-0-0-|

    Cretin!      Cretin!
e:----------------------------|
B:----------------------------|
G:-4-4-4-4-4-4----------------|
D:-4-4-4-4-4-4--2-2-2-2-2-2-2-|
A:-2-2-2-2-2-2--2-2-2-2-2-2-2-|
E:--------------0-0-0-0-0-0-0-|

I'm gonna go for a whirl with my cretin girl
e:-------------------------------------------------------|
B:-------------------------------------------------------|
G:-2-----------------------------------------------------|
D:-2-----------------------------------------------------|
A:-0---------------------------------------2-2-2-2-2-2-2-|
E:-----------------------------------------0-0-0-0-0-0-0-| 
           
My feet won't stop doin' the Cretin Hop
e:-------------------------------------------------------|
B:-------------------------------------------------------|
G:-2-----------------------------------------------------|
D:-2-----------------------------------------------------|
A:-0---------------------------------------2-2-2-2-2-2-2-|
E:-----------------------------------------0-0-0-0-0-0-0-|

Cretin! Cretin!
e:----------------------------|
B:----------------------------|
G:-4-4-4-4-4-4----------------|
D:-4-4-4-4-4-4--2-2-2-2-2-2-2-|
A:-2-2-2-2-2-2--2-2-2-2-2-2-2-|
E:--------------0-0-0-0-0-0-0-|

gt1
e:----------------------------------|
B:----------------------------------|
G:-----9----------------------------|
D:-7/9-7-9-9-9-9-9-9--7-7-7-7-7-7-7-|
A:-5/7---7-7-7-7-7-7--5-5-5-5-5-5-5-|
E:----------------------------------|

gt2
e:-----------------------------------|
B:-----------------------------------|
G:-----------------------------------|
D:---------------------7-7-7-7-7-7-7-|
A:-2--7--2--2-2-2-2-2--5-5-5-5-5-5-5-|
E:-0--5--0--0-0-0-0-0----------------|

1-2-3-4 Cretins wanna hop some more
gt1
e:----------------------------------|
B:----------------------------------|
G:-----9----------------------------|
D:-7/9-7-9-9-9-9-9-9--7-7-7-7-7-7-7-|
A:-5/7---7-7-7-7-7-7--5-5-5-5-5-5-5-|
E:----------------------------------|

gt2
e:-----------------------------------|
B:-----------------------------------|
G:-----------------------------------|
D:---------------------7-7-7-7-7-7-7-|
A:-2--7--2--2-2-2-2-2--5-5-5-5-5-5-5-|
E:-0--5--0--0-0-0-0-0----------------|

4-5-6-7 All good cretins go to heaven
gt1
e:----------------------------------|
B:----------------------------------|
G:-----9----------------------------|
D:-7/9-7-9-9-9-9-9-9--7-7-7-7-7-7-7-|
A:-5/7---7-7-7-7-7-7--5-5-5-5-5-5-5-|
E:----------------------------------|

gt2
e:-----------------------------------|
B:-----------------------------------|
G:-----------------------------------|
D:---------------------7-7-7-7-7-7-7-|
A:-2--7--2--2-2-2-2-2--5-5-5-5-5-5-5-|
E:-0--5--0--0-0-0-0-0----------------|

gt1
e:----------------------------------|
B:----------------------------------|
G:-----9----------------------------|
D:-7/9-7-9-9-9-9-9-9--7-7-7-7-7-7-7-|
A:-5/7---7-7-7-7-7-7--5-5-5-5-5-5-5-|
E:----------------------------------|

gt2
e:-----------------------------------|
B:-----------------------------------|
G:-----------------------------------|
D:---------------------7-7-7-7-7-7-7-|
A:-2--7--2--2-2-2-2-2--5-5-5-5-5-5-5-|
E:-0--5--0--0-0-0-0-0----------------|

  There's no stoppin' the cretins from hoppin'
e:-------------------------------------------------------|
B:-------------------------------------------------------|
G:-2-----------------------------------------------------|
D:-2-----------------------------------------------------|
A:-0---------------------------------------2-2-2-2-2-2-2-|
E:-----------------------------------------0-0-0-0-0-0-0-|

You gotta keep it beatin' for all the hoppin' cretins
e:-------------------------------------------------------|
B:-------------------------------------------------------|
G:-2-----------------------------------------------------|
D:-2-----------------------------------------------------|
A:-0---------------------------------------2-2-2-2-2-2-2-|
E:-----------------------------------------0-0-0-0-0-0-0-|

    Cretin!      Cretin!
e:----------------------------|
B:----------------------------|
G:-4-4-4-4-4-4----------------|
D:-4-4-4-4-4-4--2-2-2-2-2-2-2-|
A:-2-2-2-2-2-2--2-2-2-2-2-2-2-|
E:--------------0-0-0-0-0-0-0-|

I'm gonna go for a whirl with my cretin girl
e:-------------------------------------------------------|
B:-------------------------------------------------------|
G:-2-----------------------------------------------------|
D:-2-----------------------------------------------------|
A:-0---------------------------------------2-2-2-2-2-2-2-|
E:-----------------------------------------0-0-0-0-0-0-0-| 
           
My feet won't stop doin' the Cretin Hop
e:-------------------------------------------------------|
B:-------------------------------------------------------|
G:-2-----------------------------------------------------|
D:-2-----------------------------------------------------|
A:-0---------------------------------------2-2-2-2-2-2-2-|
E:-----------------------------------------0-0-0-0-0-0-0-|

Cretin! Cretin!
e:----------------------------|
B:----------------------------|
G:-4-4-4-4-4-4----------------|
D:-4-4-4-4-4-4--2-2-2-2-2-2-2-|
A:-2-2-2-2-2-2--2-2-2-2-2-2-2-|
E:--------------0-0-0-0-0-0-0-|

gt1
e:----------------------------------|
B:----------------------------------|
G:-----9----------------------------|
D:-7/9-7-9-9-9-9-9-9--7-7-7-7-7-7-7-|
A:-5/7---7-7-7-7-7-7--5-5-5-5-5-5-5-|
E:----------------------------------|

gt2
e:-----------------------------------|
B:-----------------------------------|
G:-----------------------------------|
D:---------------------7-7-7-7-7-7-7-|
A:-2--7--2--2-2-2-2-2--5-5-5-5-5-5-5-|
E:-0--5--0--0-0-0-0-0----------------|

1-2-3-4 Cretins wanna hop some more
gt1
e:----------------------------------|
B:----------------------------------|
G:-----9----------------------------|
D:-7/9-7-9-9-9-9-9-9--7-7-7-7-7-7-7-|
A:-5/7---7-7-7-7-7-7--5-5-5-5-5-5-5-|
E:----------------------------------|

gt2
e:-----------------------------------|
B:-----------------------------------|
G:-----------------------------------|
D:---------------------7-7-7-7-7-7-7-|
A:-2--7--2--2-2-2-2-2--5-5-5-5-5-5-5-|
E:-0--5--0--0-0-0-0-0----------------|

4-5-6-7 All good cretins go to heaven
gt1
e:----------------------------------|
B:----------------------------------|
G:-----9----------------------------|
D:-7/9-7-9-9-9-9-9-9--7-7-7-7-7-7-7-|
A:-5/7---7-7-7-7-7-7--5-5-5-5-5-5-5-|
E:----------------------------------|

gt2
e:-----------------------------------|
B:-----------------------------------|
G:-----------------------------------|
D:---------------------7-7-7-7-7-7-7-|
A:-2--7--2--2-2-2-2-2--5-5-5-5-5-5-5-|
E:-0--5--0--0-0-0-0-0----------------|



gt1
e:----------------------------------|
B:----------------------------------|
G:-----9----------------------------|
D:-7/9-7-9-9-9-9-9-9--7-7-7-7-7-7-7-|
A:-5/7---7-7-7-7-7-7--5-5-5-5-5-5-5-|
E:----------------------------------|

gt2
e:-----------------------------------|
B:-----------------------------------|
G:-----------------------------------|
D:---------------------7-7-7-7-7-7-7-|
A:-2--7--2--2-2-2-2-2--5-5-5-5-5-5-5-|
E:-0--5--0--0-0-0-0-0----------------|


e:---|
B:---|
G:---|
D:---|
A:-2-|
E:-0-|





Comments


Popular Metallica tabs & chords
2 X 4 Tabs
Broken Beat And Scarred Tabs
Death Is Not The End Tabs
Frantic 3 Tabs
Hero Of The Day 1 Tabs
My World 2 Tabs
Sanitarium 2 Tabs
The God That Failed Tabs
The More I See Tabs
Wherever I May Roam 1 Tabs


Song lyrics



↑ Back to top | Tablatures and chords are parodies/interpretations of the original songs. You may use it for private study, scholarship, research or language learning purposes only
© 2014 AZChords.com Contact us | Privacy policy | DMCA | Add/correct tabs | Request tabs | Top 50 tabs