>
 >
Creeping Death (Solo)

Creeping Death (Solo) Guitar Tabs

Metallica - Creeping Death (Solo) chords, tabs, tablatures, lyrics

Guitar lessons | Add/correct | Request | Top 50 tabs Artists:  A B C D E F G H I J K L M N O P Q R S T U V W X Y Z 0-9

Creeping Death (Solo) Guitar Tabs – Metallica

CD, Sheet music, Poster

Do you like Creeping Death (Solo)? Share with your friends now
Tabs
tuning: Eadgbe

i noticed that no other tab on the internet
had the creeping death solo and lead fills 
so i decided to 
put it on myself.

pull off= p
hammer on= h
bend to 1 semi semi tone up = b
bend up a whole step= fb
sustain note= ~
palm mute= p.m.
release the bend= r
slide:\ or /
tremalo picking= tp
                
solo:            
this sounds hard but believe me it is realy easy

e|----------------------------------------------------------19h20h22--|
b|-12-13-15-17p15-13-14-15-17-19p17-15-15-17-19-17-19-20-22-----------|
g|--------------------------------------------------------------------|
d|--------------------------------------------------------------------|
a|--------------------------------------------------------------------|
E|--------------------------------------------------------------------|

e|-22fb-22fb--22fb-22fb-r-22fb-r-22--19--|
b|---------------------------------------|
g|---------------------------------------|
d|---------------------------------------|
a|---------------------------------------|
E|---------------------------------------|

e|-22-20-19\17-21-19-17\15-19-17-15\14-17-15-14\12-15p14-------------------|
b|-------------------------------------------------------17p15-15p14p12h15-|
g|-------------------------------------------------------------------------|
d|-------------------------------------------------------------------------|
a|-------------------------------------------------------------------------|
E|-------------------------------------------------------------------------|

e|-------------------------------------------------------------------------|
b|-12\10-10--------10--15---15--12-----------------------------------------|
g|----------12fb-r-----14fb-16--12-----12-14--14fb-r-14-12b----12-14fb-----|
d|----------------------------------14----------------------14-------------|
a|-------------------------------------------------------------------------|
E|-------------------------------------------------------------------------|

e|---------------------------------------------------------------12-15p12--|
b|-12-15p12-15p12------12-15p12-15p12------12-15p12-15p12-15fb-r-----------|
g|----------------14fb----------------14fb---------------------------------|
d|-------------------------------------------------------------------------|
a|-------------------------------------------------------------------------|
E|-------------------------------------------------------------------------|

e|----12-----------------------14--17p15-14-15p14----14-------12-------------|
b|-15----15-12-15p12----12------------------------17----17p15----15p14-15p14-|
g|-------------------14----14------------------------------------------------|
d|---------------------------------------------------------------------------|
a|---------------------------------------------------------------------------|
E|---------------------------------------------------------------------------|

e|------------------------------17--20/22~~-22~~~--|
b|-12-14-12------------------18--------------------|
g|----------14-12----12-14/19----------------------|
d|----------------14-------------------------------|
a|-------------------------------------------------|
E|-------------------------------------------------|

sweep picking.......................................................................|

e|-------12-17p12-------------12-17p12----------------12-17p12-------------12-12p17-|
b|----13----------13-------13----------13----------13----------13-------13----------|
g|-14----------------14-14----------------14-14-14----------------14-14-------------|
d|----------------------------------------------------------------------------------|
a|----------------------------------------------------------------------------------|
E|----------------------------------------------------------------------------------|

e|----12h15p12----------------------------------------------------------------------|
b|-13----------15---12----12--15p12----------------15---15---15---------------------|
g|---------------------14------------14-12----12---14fb-14fb-14fb-14fb-r------------|
d|-----------------------------------------14---------------------------------------|
a|----------------------------------------------------------------------------------|
E|----------------------------------------------------------------------------------|

e|----------------------------------------------------------------------------------|
b|----------------------------------------------------------------------------------|
g|----------------------------------------------------------------------------------|
d|----------------------------------------------------------------------------------|
a|-7--7-7--8-8-8-8--9-9-9-9-9-9-9-9-10--9-10-9-10-9-11-10-12-11-12-11-12-11-13-12-14|
E|----------------------------------------------------------------------------------|

e|----------------------------------------------------------------------------------|
b|----------------------------------------------------------------------------------|
g|----------------------------------------------------------------------------------|
d|-------------------------------------------11-11-12-11-12-11-12-12-12-12-13-12-13-|
a|-13-14-13-14-14-15-15-14-14-15-14-14-14-15----------------------------------------|
E|----------------------------------------------------------------------------------|

e|--------------------------------------------------------14--17p14-----------------|
b|--------------------------------------14-17-14----14-17-----------14h17-14----14--|
g|----------------12/14--17-14-13-14-16----------16--------------------------16-----|
d|-15-15---15-15--------------------------------------------------------------------|
a|----------------------------------------------------------------------------------|
E|----------------------------------------------------------------------------------|

e|----------------------------------------------------------------------------------|
b|-17p14----------------------------------------------------------------------------|
g|-------16-14----14-16p14----14----------------------------------------------------|
d|-------------16----------16-----16p14-16p14----14---------------------------------|
a|--------------------------------------------16----16-14-16p14-12-14p12----12-14---|
E|-----------------------------------------------------------------------14---------|

e|----------------------------------------------------------------------------------|
b|----------------------------------------------------------------------------------|
g|--------------------------11--12--14---------12--11h12p11---------------11---12-14|
d|--12--12---14~~~~~~~~~~14----------------------------------12--------14-----------|
a|----------------------------------------------------------------------------------|
E|----------------------------------------------------------------------------------|

e|-----------------12-----12/14--15--17-------------15---14----------17tp-----------|
b|--12---13---15-----------------------------------------------17-------------------|
g|----------------------------------------------------------------------------------|
d|----------------------------------------------------------------------------------|
a|----------------------------------------------------------------------------------|
E|----------------------------------------------------------------------------------|

e|--17--19----20-----19---17-----15---14h15--15p14p12-15p14p12-15p14p12-15p14p12----|
b|----------------------------------------------------------------------------------|
g|----------------------------------------------------------------------------------|
d|----------------------------------------------------------------------------------|
a|----------------------------------------------------------------------------------|
E|----------------------------------------------------------------------------------|

e|-15p14p12-15p14p12-15p14p12-15-14/12-17p15p14-17p15p14-17p15p14-17p15p14-17p15p14-|
b|----------------------------------------------------------------------------------|
g|----------------------------------------------------------------------------------|
d|----------------------------------------------------------------------------------|
a|----------------------------------------------------------------------------------|
E|----------------------------------------------------------------------------------|

e|-17p15p14-17p15p14-17-15-15-19p17p15-19p17p15-19p17p15-19-15-16-20p19p17-20p19p17-|
b|----------------------------------------------------------------------------------|
g|----------------------------------------------------------------------------------|
d|----------------------------------------------------------------------------------|
a|----------------------------------------------------------------------------------|
E|----------------------------------------------------------------------------------|

e|-20p19p17-20p19p17--22fb----22fb----22fb---22fb------22fb-22fb--22fb~~~~~-|
b|--------------------------------------------------------------------------|
g|--------------------------------------------------------------------------|
d|--------------------------------------------------------------------------|
a|--------------------------------------------------------------------------|
E|--------------------------------------------------------------------------|

d|-----------------|   
b|-----------------|    well thats the solo long and takes a long time to 
g|-----------------|    remember.
d|-14\-------------|
a|-14\-------------|
E|-12\-------------|


and some of the lead fills:

the one after the bridge is :


pm.........|
e|--------------------------------------------|
b|---------------------------------------17---|
g|------------------------------------16------|
d|----------12-14-15-17-15-14/12----15--------|
a|-12-13-15----------------------14-----------|
E|--------------------------------------------|

the long one near the end is;
two guitars
E|--------------------------------------------------------|
b|--15fb-r---13--12---------------12fb-r----------13------|
g|.-14fb-r---12--11---------------11fb-r-----14---12-----.|
d|.------------------------------------------14----------.|
a|--------------------------------------------------------|
E|--------------------------------------------------------|

after you do that a few times you play somthing in the background
which gous like this

e|------------------------------------------------------------------------|
b|-20p17p0-20p17p0-20p17p0-20p17p0-19p16p0-19p16p0-19p16p0-19p16p0--------|
g|.----------------------------------------------------------------------.|
d|.----------------------------------------------------------------------.|
a|------------------------------------------------------------------------|
E|------------------------------------------------------------------------|

that all the stuff most tabs don't have!





Comments


Popular Metallica tabs & chords
Battery 2 Bass Tabs
Dazed And Confused 1 Bass Tabs
The Four Horsmen Bass Tabs
Low Man's Lyric Chords
Cure Drum Tabs
Blitzkrieg Tabs
Fade To Black 2 Tabs
Of Wolf And Man 2 Tabs
So What?! 1 Tabs
St. Anger 2 Tabs


Song lyrics



↑ Back to top | Tablatures and chords are parodies/interpretations of the original songs. You may use it for private study, scholarship, research or language learning purposes only
© 2014 AZChords.com Contact us | Privacy policy | DMCA | Add/correct tabs | Request tabs | Top 50 tabs