» » »

Metallica, Broken Beat Scarred Tabs (ver.5)

Artists:  A B C D E F G H I J K L M N O P Q R S T U V W X Y Z # 

Broken Beat Scarred Tabs (ver.5)

Metallica Tabs
 Rating:
4/5 (4 votes)
Broken Beat Scarred lessons Tabs too difficult? Try these video lessons and learn fast
1
                This is the solo to the best song on the album=Broken,Beat & Scarred

This is my first tab so i hope it is useful Enjoy!!!!!!!

e[-10p8p7------10p8p7------10p8p7]------10p8p7------10p8p7------]
B[-------10p8p7------10p8p7------]10p8p7------10p8p7------10p8p7]
G[-------------------------------]------------------------------]
D[-------------------------------]------------------------------]
A[-------------------------------]------------------------------]
E[-------------------------------]------------------------------]

e[-12p10p8-------10p8p7------12p10p8[-------14p12p10--------14p12p10---------|
B[--------12p10p8------10p8p7-------[12p10p8--------14p12p10--------14p12p10-|
G[----------------------------------[----------------------------------------|
D[----------------------------------[----------------------------------------|
A[----------------------------------[----------------------------------------|
E[----------------------------------[----------------------------------------|

e[-15p14p12--------15p14p12--------[
B[---------15p14p12--------15p14p12[
G[---------------------------------[
D[---------------------------------[
A[---------------------------------[
E[---------------------------------[

e[-17-15-14-0-0-0-15-14-12-14-0-0-0-12-10-0-0-0-12-10-8-0-0-0------------[
B[-----------------------------------------------------------------------[
G[------------------------------------------------------------12V----14V-[
D[------------------------------------------------------------12V----14V-[
A[-----------------------------------------------------------------------[
E[-----------------------------------------------------------------------[

e[-----------------------------------------------------------[
B[-----------------------------------------------------------[
G[-14bfullp12--12-14bfullp12--12-14bfullp12--12-14bfullp12---[
D[-----------14-------------14-------------14-------------14-[
A[-----------------------------------------------------------[
E[-----------------------------------------------------------[

e[-------------------------------------------------------------------[
B[--------12-12------12-12-------12---------12-12--------12-12-------[
G[--14bfull---14bfull-----14bfull----14bfull------14bfull-----14bfull[
D[-------------------------------------------------------------------[
A[-------------------------------------------------------------------[
E[-------------------------------------------------------------------[

e[------------------------------------------------------------------------[
B[-12---12h13p12----12----------------------------------------0trembardown[
G[----14---------14----14-12-12-----12----14--12--12-14p12----0trembardown[
D[-------------------------------14-----14------14------------------------[
A[------------------------------------------------------------------------[
E[------------------------------------------------------------------------[

e[-----------------------------------------------------------------------[
B[-------------------------------5p2p0-----6p3p0-----7p4p0-----8p5p0-----[
G[-----5harm trembardown--------------4p2p0-----5p3p0-----6p4p0-----7p5p0[
D[-----------------------------------------------------------------------[
A[-----------------------------------------------------------------------[
E[-----------------------------------------------------------------------[

e[-------------------------------------------------------------------[
B[-9p6p0------8-7-------8p7-------6\7--------15----------------------[
G[------8p6p0-----9p7p0-----9p7p0----9p7p0---14bfull and grad release[
D[-------------------------------------------------------------------[
A[-------------------------------------------------------------------[
E[-------------------------------------------------------------------[

e[---------------------------------------------[
B[----------------------9----------------------[
G[----------------------8bfull----0trembar down[
D[---------------------------------------------[
A[---------------------------------------------[
E[------0trembardown --------------------------[
            
Submit corrections

comments powered by Disqus
↑ Back to top | Metallica Tabs for Broken Beat Scarred. Lyrics for acoustic guitar and electric guitar. 1 Tablatures and chords are parodies/interpretations of the original songs. You may use it for private study, scholarship, research or language learning purposes only