>
 >
Blackened Live

Blackened Live Guitar Tabs

Metallica - Blackened Live chords, tabs, tablatures, lyrics

Guitar lessons | Add/correct | Request | Top 50 tabs Artists:  A B C D E F G H I J K L M N O P Q R S T U V W X Y Z 0-9

Blackened Live Guitar Tabs – Metallica

CD, Sheet music, Poster

Do you like Blackened Live? Share with your friends now
TabsTabs v2
MetallicA - Blackened Live
Live In mexico City
Rate this tab please 
Check my other tabs
Intro is very hard to do

Notation:
.  - palm mute
h  - hammer on
p  - pull off
!  - I used these to glue the dots to the page. Huh? (just ignore them).
s/  - slide up           these are used for normal
s                         and ghost slides
\  - slide down

Intro (two gtrs.):                      (Gtr. II shown on right)
E|-14-15h17p15-17b(18)r(17)-17b(18)r(17)-17\15-15-17\15-15-9\7-7------------|
B|-16-17h19p17-19b(20)r(19)-19b(20)r(19)-19\17-17-19\17-17-------12\10|7----|
G|--------------------------------------------------------------------------|
D|--------------------------------------------------------11\9-9------------|
A|--------------------------------------------------------------------------|
E|--------------------------------------------------------------------------|

E|-------------------------------------------------------------------|
B|-8-10|7-12-10|7\8|5-8|5-10|7\8|5-8|5-/12-12-12-12\10|7-8-10|7-12|8-|
G|-9-------9---------------------------------------------9-----------|
D|---------------------------------------9-10--9---------------------|
A|-------------------------------------------------------------------|
E|-------------------------------------------------------------------|



E|----------------------------------------------------------------------|
B|-10|7\8|5-8|5-10|7\8|5-8|5-\0-4-5h7p5-7-(7)b(8)r(7)-10|7\5-5-10|7\5-5-|
G|----------------------------------------------------------------------|
D|----------------------------------------------------------------------|
A|----------------------------------------------------------------------|
E|----------------------------------------------------------------------|

___________


  --------|--------
  --------|--------
  --------|-3------
  --------|-1------
  ---1---^|(1)-----   12\-----12\------||
!                                                         s       s

   1st time
E|----------------------------------|------------------|
B|----------------------------------|------------------|
G|-9-----------7-----------5-------^|(5)--4------------|
D|-9-----------7-----------5-------^|(5)--4------------|
A|-7-----------5-----------3-------^|(3)--2------------|
E|----------------------------------|---------3---2----|
!                                             .   .

E|----------------------------------|--------------------------|
B|----------------------------------|--------------------------|
G|-------------7-----------5-------^|(5)--4--------------------|
D|-2-----------7-----------5-------^|(5)--4--------------------|
A|-2-----------5-----------3-------^|(3)--2--------------------|
E|-0--------------------------------|-----------------3---2----|
!                                                     .   .

     2nd, 3rd and 4th times
E||-----------------------------------|------------------|
B||-----------------------------------|------------------|
G||*-------------7-----------5-------^|(5)--4------------|
D||*-2-----------7-----------5-------^|(5)--4------------|
A||--2-----------5-----------3-------^|(3)--2------------|
E||--0--------------------------------|---------3---2----|
!                                               .   .

 E|----------------------------------|--------------------------||
 B|----------------------------------|--------------------------||
 G|-------------7-----------5-------^|(5)--4-------------------*||
 D|-2-----------7-----------5-------^|(5)--4-------------------*||
 A|-2-----------5-----------3-------^|(3)--2--------------------||
 E|-0--------------------------------|-----------------3---2----||
!                                                      .   .



     Solo                                                          6x
E||-----------------------------------|----------------------------------||
B||-----------------------------------|----------------------------------||
G||*----------------------------------|---------------------------------*||
D||*----------------------------------|----------------------------s----*||
A||--2---2---2---2---2---2---2---2----|-2---2---2---2---2---2---2--/3----||
E||--0---3---0---2---0---3---0---2----|-0---3---0---2---0---3------------||
     .   .   .   .   .   .   .   .      .   .   .   .   .   .

E|----------------------------------|----------------------------------------|
B|----------------------------------|----------------------------------------|
G|----------------------------------|----------------------------------------|
D|----------------------------------|-------------------------4---5----------|
A|-2---2---2---2---2---2---2---2----|-2---2---2---2---2---2---2---3----------|
E|-0---3---0---2---0---3---0---2----|-0---3---0---2---0---3------------------|
   .   .   .   .   .   .   .   .      .   .   .   .   .   .

E|----------------------------------|----------------------------------|
B|----------------------------------|----------------------------------|
G|----------------------------------|----------------------------------|
D|-5---5-5-5-------4---4------------|-5---5-5-5-------4---4------------|
A|-5---5-5-5-------4---4------------|-5---5-5-5-------4---4------------|
E|-3---3-3-3---0---2---2------------|-3---3-3-3---0---2---2------------|
   .   . . .   .   .                  .   . . .   .   .

E|------------------|
B|------------------|
G|------------------|
D|-3---3------------|
A|-3---3------------|
E|-1---1------------|
   .


E||-----------------------------------|----------------------------------|
B||-----------------------------------|----------------------------------|
G||*----------------------------------|----------------------------------|
D||*----------------------------------|----------------------------------|
A||------7-------7-------7-------7----|-----5-------5-------5-------5----|
E||--0-------0-------0-------0--------|-0-------0-------0-------0--------|
     .       .       .       .          .       .       .       .

 E|----------------------------------|----------------------------------||
 B|----------------------------------|----------------------------------||
 G|----------------------------------|---------------------------------*||
 D|----------------------------------|---------------------------h-----*||
 A|-----8-------8-------8-------8----|-----7-------7-------7---5-^-7----||
 E|-0-------0-------0-------0--------|-0-------0-------0----------------||
    .       .       .       .          .       .       .


E|----------------------------------|
B|----------------------------------|
G|----------------------------------|
D|----------------------------------|
A|-2---2---2---2---2---2---2---2----|
E|-0---0---0---0---0---0---0---0----|
   .   .   .   .   .   .   .   .



E|----------------------------------|----------------------------------|
B|----------------------------------|----------------------------------|
G|-9--------------------------------|-7---------------5----------------|
D|-9-----------------------7---7----|-7-------5---5---5-------5---5----|
A|-7-----------------------7---7----|-5-------5---5---3-------5---5----|
E|-------------------------5---5----|---------3---3-----------3---3----|
!                          .   .              .   .           .   .

E|----------------------------------|----------------------------------|
B|----------------------------------|----------------------------------|
G|----------------------------------|----------------------------------|
D|-4--------------------------------|-5-5-5-----------5-5-5------------|
A|-4--------------------------------|-5-5-5-----------5-5-5------------|
E|-2--------------------------------|-3-3-3-----------3-3-3------------|
!                                     . . .           . . .

E|----------------------------------|----------------------------------|
B|----------------------------------|----------------------------------|
G|----------------------------------|-7---------------5----------------|
D|-2-----------------------7---7----|-7-------5---5---5-------5---5----|
A|-2-----------------------7---7----|-5-------5---5---3-------5---5----|
E|-0-----------------------5---5----|---------3---3-----------3---3----|
!                          .   .              .   .           .   .

E|----------------------------------|----------------------|
B|----------------------------------|----------------------|
G|----------------------------------|----------------------|
D|-4--------------------------------|-5---5-5-5-------4----|
A|-4--------------------------------|-5---5-5-5-------4----|
E|-2--------------------------------|-3---3-3-3---0---2----|
!                                     .   . . .   .   .


E|----------------------------------|----------------------------------|
B|----------------------------------|----------------------------------|
G|----------------------------------|----------------------------------|
D|----------------------------------|----------------------------------|
A|-----7-------7-------7-------7----|-----7-------7-------7-------7----|
E|-0-------0-------0-------6--------|-5-------5-------5-------5--------|
   .       .       .       .          .       .       .       .

E|----------------------------------|----------------------------------|
B|----------------------------------|----------------------------------|
G|----------------------------------|----------------------------------|
D|----------------------------------|-----5-------5--------------------|
A|-----5-------5-------5-------5----|-3-------3-----------5-------5----|
E|-3-------3-------3-------3--------|-----------------3-------3--------|
   .       .       .       .          .       .       .       .


E|----------------------------------|----------------------------------|
B|----------------------------------|----------------------------------|
G|----------------------------------|----------------------------------|
D|----------------------------------|----------------------------------|
A|-----7-------7-------7-------7----|-----7-------7-------7-------7----|
E|-0-------0-------0-------6--------|-5-------5-------5-------5--------|
   .       .       .       .          .       .       .       .




         (note the extra 1/8 note in this meas.)
E|----------------------------------|--------------------------------------|
B|----------------------------------|--------------------------------------|
G|----------------------------------|--------------------------------------|
D|-5---5---5---5---5---5---5---5----|-5---5---5---5---5---5---5---5---5----|
A|-5---5---5---5---5---5---5---5----|-3---3---3---3---5---5---5---5---5----|
E|-3---3---3---3---3---3---3---3----|-----------------3---3---3---3---3----|
!  .   .   .   .   .   .   .   .      .   .   .   .   .   .   .   .   .
!                It's easier to play this last note as an muted low-E ^

E|----------------------------------------------------------|
B|----------------------------------------------------------|
G|----------------------------------------------------------|
D|---------------------------------------------8------------|
A|-7-------7-------7---8---7-------7-------7-------7--------|
E|-----0-------0---------------0-------0---------------0----|
       .       .               .       .               .

E|----------------------------------------------------------|
B|----------------------------------------------------------|
G|----------------------------------------------------------|
D|----------------------------------------------------------|
A|-7-------7-------7---8---7---8-----------2---3-3----------|
E|-----0-------0---------------6---2---3-----------1---0----|
       .       .                   .   .   .   . . .   .

E|----------------------------------------------------------|
B|----------------------------------------------------------|
G|----------------------------------------------------------|
D|---------------------------------------------8------------|
A|-7-------7-------7---8---7-------7-------7-------7--------|
E|-----0-------0---------------0-------0------(6)------0----|
       .       .               .       .               .

    (note this meas. is an 1/8 note short)
E|------------------------------------------------------|
B|------------------------------------------------------|
G|------------------------------------------------------|
D|------------------------------------------------------|
A|-7-------7-------7---8---7---8-----------2---3-3------|
E|-----0-------0---------------6---2---3-----------1----|
       .       .                   .   .   .   . . .

E||-----------------------------------------------------------|
B||-----------------------------------------------------------|
G||*----------------------------------------------------------|
D||*-------------------------------------------------8--------|
A||------7-------7-------7---8---7-------7-------7-------7----|
E||--0-------0-------0---------------0-------0------(6)-------|
!    .       .       .               .       .       ^
!                                                2nd guitar play this
!                                                  2nd time only

 E|----------------------------------------------------------||
 B|----------------------------------------------------------||
 G|---------------------------------------------------------*||
 D|---------------------------------------------------------*||
 A|-----7-------7-------7---8---7---8-----------2---3-3------||
 E|-0-------0-------0---------------6---2---3-----------1----||
!   .       .       .                   .   .   .   . . .

3rd verse

(same as first)

3rd Chorus

E|----------------------------------|----------------------------------|
B|----------------------------------|----------------------------------|
G|-9--------------------------------|-7---------------5----------------|
D|-9-----------------------7---7----|-7-------5---5---5-------5---5----|
A|-7-----------------------7---7----|-5-------5---5---3-------5---5----|
E|-------------------------5---5----|---------3---3-----------3---3----|
!                          .   .              .   .           .   .

E|----------------------------------|----------------------------------|
B|----------------------------------|----------------------------------|
G|----------------------------------|----------------------------------|
D|-4--------------------------------|-5-5-5-----------5-5-5------------|
A|-4--------------------------------|-5-5-5-----------5-5-5------------|
E|-2--------------------------------|-3-3-3-----------3-3-3------------|
!                                     . . .           . . .

E|----------------------------------|----------------------------------|
B|----------------------------------|----------------------------------|
G|----------------------------------|-7---------------5----5-----------|
D|-2-----------------------7---7----|-7-------5---5---5----5----5------|
A|-2-----------------------7---7----|-5-------5---5---3----3----5------|
E|-0-----------------------5---5----|---------3---3-------------3------|
!                          .   .              .   .   .    .    .

E|----------------------------------|----------------------|
B|----------------------------------|----------------------|
G|----------------------------------|----------------------|
D|-4--------------------------------|----------------------|
A|-4--------------------------------|-5---5-5-5-------4----|
E|-2--------------------------------|-3---3-3-3---0---2----|
!                                     .   . . .   .   .

E|----------------------------------|----------------------------------|
B|----------------------------------|----------------------------------|
G|----------------------------------|-7---------------5----------------|
D|-2-----------------------7---7----|-7-------5---5---5-------5---5----|
A|-2-----------------------7---7----|-5-------5---5---3-------5---5----|
E|-0-----------------------5---5----|---------3---3-----------3---3----|
!                          .   .              .   .           .   .

E|----------------------------------|----------------------------------|
B|----------------------------------|----------------------------------|
G|----------------------------------|----------------------------------|
D|-4--------------------------------|-5-5-5-----------5-5-5------------|
A|-4--------------------------------|-5-5-5-----------5-5-5------------|
E|-2--------------------------------|-3-3-3-----------3-3-3------------|
!                                     . . .           . . .

E|----------------------------------|----------------------------------|
B|----------------------------------|----------------------------------|
G|----------------------------------|-7---------------5----5-----------|
D|-2-----------------------5---5----|-7-------5---5---5----5----5------|
A|-2-----------------------5---5----|-5-------5---5---3----3----5------|
E|-0-----------------------3---3----|---------3---3-------------3------|
!                          .   .              .   .   .    .    .

E|----------------------------------|--------------------------|
B|----------------------------------|--------------------------|
G|----------------------------------|--------------------------|
D|-4--------------------------------|-5---5-5-5-------4---4----|
A|-4--------------------------------|-5---5-5-5-------4---4----|
E|-2--------------------------------|-3---3-3-3---0---2---2----|
!                                     .   . . .   .   .

E|----------------------------------|------------------|
B|----------------------------------|------------------|
G|----------------------------------|------------------|
D|-5---5-5-5-------4---4------------|-3---3------------|
A|-5---5-5-5-------4---4------------|-3---3------------|
E|-3---3-3-3---0---2---2------------|-1---1------------|
   .   . . .   .   .                  .

E|----------------------------------------------------------|
B|----------------------------------------------------------|
G|----------------------------------------------------------|
D|-------------------------------------------------8---2----|
A|-----7-------7-------7---8---7-------7-------7-------2----|
E|-0-------0-------0---------------0-------0-----------0----|
   .       .       .               .       .




Intro (two gtrs.):                      (Gtr. II shown on right)
E|-14-15h17p15-17b(18)r(17)-17b(18)r(17)-17\15-15-17\15-15-9\7-7------------|
B|-16-17h19p17-19b(20)r(19)-19b(20)r(19)-19\17-17-19\17-17-------12\10|7----|
G|--------------------------------------------------------------------------|
D|--------------------------------------------------------11\9-9------------|
A|--------------------------------------------------------------------------|
E|--------------------------------------------------------------------------|

E|-------------------------------------------------------------------|
B|-8-10|7-12-10|7\8|5-8|5-10|7\8|5-8|5-/12-12-12-12\10|7-8-10|7-12|8-|
G|-9-------9---------------------------------------------9-----------|
D|---------------------------------------9-10--9---------------------|
A|-------------------------------------------------------------------|
E|-------------------------------------------------------------------|



E|----------------------------------------------------------------------|
B|-10|7\8|5-8|5-10|7\8|5-8|5-\0-4-5h7p5-7-(7)b(8)r(7)-10|7\5-5-10|7\5-5-|
G|----------------------------------------------------------------------|
D|----------------------------------------------------------------------|
A|----------------------------------------------------------------------|
E|----------------------------------------------------------------------|

___________




Upper Harmony

E||-------------------------------------------------------------|
B||-------------------------------------------------------------|
G||*------------------------------------h--p-p------------------|
D||*-----7--9------7--9------7--9--10--9^10^9^7-----------------|
A||--10--------10--------10-------------------------------------|
E||-------------------------------------------------------------|
     .         .         .


 E|------------------------------------------------------------||
 B|------------------------------------h--p-p------------------||
 G|---------------7--9------7--9--11--9^11^9^7----------------*||
 D|-----7--9------------10----------------------9--7----------*||
 A|-10--------10-----------------------------------------------||
 E|------------------------------------------------------------||
    .         .         .                       .

E|------------------------------------------------------------|
B|------------------------------------h--p-p------------------|
G|-----7--9------7--9------7--9--11--9^11^9^7-----------------|
D|-10--------10--------10-------------------------------------|
A|------------------------------------------------------------|
E|------------------------------------------------------------|
   .         .         .

E|-----------------------------------h--p-p-------------------|
B|---------------7--8-----7--8--10--8^10^8^7------------------|
G|-----7--9------------9----------------------9--7------------|
D|-10--------10-----------------------------------------------|
A|------------------------------------------------------------|
E|------------------------------------------------------------|
   .         .         .                      .


E|---------------------------------h--p-p---------------------|
B|----7--8-----7--8-----7--8--10--8^10^8^7--------------------|
G|-9--------9--------9----------------------------------------|
D|------------------------------------------------------------|
A|------------------------------------------------------------|
E|------------------------------------------------------------|
   .        .        .


E|-------------------------------------h--p--p------------|------
B|----7--8-----7--12--8--10--12--13--12^13^12^10------10--|------
G|-9--------9-------------------------------------12------|-12---
D|--------------------------------------------------------|------
A|--------------------------------------------------------|------
E|--------------------------------------------------------|------
   .        .         .

Lower Harmony

E||-------------------------------------------------------------|
B||-------------------------------------------------------------|
G||*------------------------------------------------------------|
D||*----------------------------------------h--p--p-------------|
A||------9--10------9--10------9--10--12--10^12^10^9------------|
E||--12---------12---------12-----------------------------------|
     .          .          .


E|------------------------------------------------------------||
B|------------------------------------------------------------||
G|----------------------------------------h--p--p------------*||
D|----------------9--10------9--10--12--10^12^10^9-----------*||
A|-----9--10-------------12-------------------------10--9-----||
E|-12---------12----------------------------------------------||
   .          .          .                          .

E|------------------------------------------------------------|
B|------------------------------------------------------------|
G|----------------------------------------h--p--p-------------|
D|-----9--10------9--10------9--10--12--10^12^10^9------------|
A|-12---------12---------12-----------------------------------|
E|------------------------------------------------------------|
   .          .          .


E|------------------------------------------------------------|
B|--------------------------------------h--p------------------|
G|----------------7--9------7--9--11--9^11^9^7----------------|
D|-----9--10------------10----------------------10--9---------|
A|-12---------12----------------------------------------------|
E|------------------------------------------------------------|
   .          .         .                       .


E|------------------------------------------------------------|
B|------------------------------------h--p-p------------------|
G|-----7--9------7--9------7--9--11--9^11^9^7-----------------|
D|-10--------10--------10-------------------------------------|
A|------------------------------------------------------------|
E|------------------------------------------------------------|
   .         .         .


E|------------------------------------h--p-p----------|-----
B|----------------7--8-----7--8--10--8^10^8^7-----7---|-----
G|-----7--9-------------9----------------------9------|-9---
D|-10--------10---------------------------------------|-----
A|----------------------------------------------------|-----
E|----------------------------------------------------|-----
   .         .          .

_______________

Solo: (by Matt Holliman)
t = tap ^ = bend        \/= use tremolo bar     = harmonics

|-----------------------------7-8-8-7----7---------------------------------|
|---7-8---7-8---7-8---7-8---7---------10---10-8-10-8-7-8-7---7-------------|
|-9-----9-----9-----9-----9--------------------------------9---9-7-9-7-6-7-|
|--------------------------------------------------------------------------|
|--------------------------------------------------------------------------|
|--------------------------------------------------------------------------|

|---------------------------------------7-9-7h9p7----7-9-10-12-12|10-9-7----7-|
|--------------------7-8-7h8p7---7-8-11-----------11---------------------11---|
|6-----6h7p6---6-7-9-----------9----------------------------------------------|
|--7-9-------9----------------------------------------------------------------|
|-----------------------------------------------------------------------------|
|-----------------------------------------------------------------------------|

|-9-10-12-9-t19p12-t19p10-t19p10p9-t18p10-t18p8-t18p8p7----------------------|
|-------------------------------------------------------t17p8-t17p7-t17p7p5--|
|----------------------------------------------------------------------------|
|----------------------------------------------------------------------------|
|----------------------------------------------------------------------------|
|----------------------------------------------------------------------------|

|---------------------------------------------------|
|-t17p8-t17p7-t17p7p5-t17p8p7-t17p8p7-t17p8p7p5s3s5-|
|---------------------------------------------------|
|---------------------------------------------------|
|---------------------------------------------------|
|---------------------------------------------------|

|-12^-12^-12^-rp10-12-10h12p10-9-10-9|10-9-7-6-19^-19^-r-18-15-14-15-15p14---|
|-10^-10^-10^-rp8--10--8h10p8--7-8--7|8--7-----17^-17^-r-16-13-12-13-13p12---|
|------------------------------------------9-8-------------------------------|
|----------------------------------------------------------------------------|
|----------------------------------------------------------------------------|
|----------------------------------------------------------------------------|
|----15p14----s12-14-18-14-12-18-14-12-18-14-12-18-14-12-18-14-12-18-14-12-|

|-17-13p12-15----------------------------------------------------------------|
|-14-------12----------------------------------------------------------------|
|----------------------------------------------------------------------------|
|----------------------------------------------------------------------------|
|----------------------------------------------------------------------------|

|-18-14-12-18-14-12-18-14-12-18-14-12--19----------------------------------|
|--------------------------------------------------------------------------|
|--------------------------------------------------------------------------|
|------------------------------------------5--5-5-5---4-4--5--5-5-5---4-4--|
|------------------------------------------5--5-5-5---4-4--5--5-5-5---4-4--|
|------------------------------------------3--3-3-3-0-2-2--3--3-3-3-0-2-2--|

|------------s18-19-24-22-20-19-23-21-19-17-20-19-17-15-19-17-15-14-14-17--|
|-------13^----------------------------------------------------------------|
|-------13^----------------------------------------------------------------|
|-3-3----------------------------------------------------------------------|
|-3-3----------------------------------------------------------------------|
|-1-1----------------------------------------------------------------------|

|-17p15-14-12-11-12-15-14-12-10-9-10-9-10-14-12-10-9-8-9-12-10-8-7---------|
|------------------------------------------------------------------10^-10^-|
|--------------------------------------------------------------------------|
|--------------------------------------------------------------------------|
|--------------------------------------------------------------------------|
|--------------------------------------------------------------------------|

|--------------------------------------------------------------------------|
|-12p10-8-7---7-8-7---7-----------7---------0---0---------0-\/--12---------|
|-----------9-------9---9-7-9---7---9-7---9---7---2-------------12---------|
|---------------------------------------9-----------4-2-0-------12---------|
|--------------------------------------------------------------------------|
|--------------------------------------------------------------------------|



|--------------------------------------------7h8p7----7-8-8h10h12-12-10-8-7--|
|-----------------------------7-8-7---7-8-10-------10------------------------|
|-7h9-7----5h7-5-4-5-4-----s9-------9----------------------------------------|
|-------10-------------4-----------------------------------------------------|
|----------------------------------------------------------------------------|
|----------------------------------------------------------------------------|

|-----------7--------------------------------------------------------|
|-------------10p8-7--\/------------------------------------------|
|-9-7--7-5------------\/--12p0-12p0-12p0-12p0-12p0-12p0-11p0-11p0-|
|-9-7--7-5-----------------------------------------------------------|
|--------------------------------------------------------------------|
|--------------------------------------------------------------------|

|-------------------------------------------------------------------------|
|-------------------------------------------------------------------------|
|-9p0-9p0-9p0-9p0-9p0-9p0-9p0-9p0-16p0-16p0-16p0-16p0-16p0-16p0-14p0-14p0-|
|-------------------------------------------------------------------------|
|-------------------------------------------------------------------------|
|-------------------------------------------------------------------------|

|----------------------------------------------------------------------------|
|----------------------------------------------------------------------------|
|-12p0-12p0-12p0-12p0-12p0-12p0-12p0-12p0-2p0-2p0-2h4p0-4p0-5p0-5p0-4p0-4p0--|
|----------------------------------------------------------------------------|
|----------------------------------------------------------------------------|
|----------------------------------------------------------------------------|

|--------------------------------------------------|
|--------------------------------------------------|
|-5p0-5p0-7p0-7p0-9p0-9p0-9p0-9p0-(5)-\/--\/--\/---|
|---------------------------------(5)-\/--\/--\/---|
|--------------------------------------------------|
|--------------------------------------------------|





Comments


Popular Metallica tabs & chords
The Cure 2 Bass Tabs
Whiskey In The Jar Chords
Blackened 6 Tabs
Charlie Brown Theme Tabs
Charlie Brown Theme 1 Tabs
Damage, Inc 1 Tabs
Die Die My Darling 1 Tabs
Fade To Black Live Intro Tabs
Nothing Else Matters 4 Tabs
The Outlaw Torn Tabs


Song lyrics



↑ Back to top | Tablatures and chords are parodies/interpretations of the original songs. You may use it for private study, scholarship, research or language learning purposes only
© 2014 AZChords.com Contact us | Privacy policy | DMCA | Add/correct tabs | Request tabs | Top 50 tabs