» » »

Blackened Bass tabs (ver.5)

Artists:  A B C D E F G H I J K L M N O P Q R S T U V W X Y Z # 

Blackened Bass tabs (ver.5)

Metallica
Rating:
0/5 (0 votes)

Hard to play? Try these video lessons and learn fast.
                                   ______ _________ ___ ___ ___   _ _______
            /\    /| ____\\_  ____//| | | | | |  / \\      \
           /  \  / | |_     | |   / | | | | | | / /_\\ 0  __\
          /_   \/  | __|    | |  / 0| | | | | || | _ | __ \
            / /\/| | |___   | | / _ | |_| |_| | \\/ /| | \ \
           / /   | |_____|  |_|/_/ ||___|___|_|  \_/ | |  \ \
          / /__  |/                                   \| __\ \  
         |   /                                            \   |
         |  /                                              \  |
         |/                                                 \ |

                             Blackened
                      ...And Justice for All
                   speed=182 (Moderatly fast rock)

This is 100% Correct. If you think that it is wrong listen to the bass part and you will hear!
(The 54 is the time signature)
Intro
| |--------------|--------------|--------------|
|5|--------------|--------------|---Bass rests-|
|4|1-----2-3-3---|--------------|---5 measures-|
| |--2-3------1-0|-0------------|--------------|
TIME CHANGE
| |--------------|
|4|---rests this-|
|4|--- Measure---|
| |--------------|
another change
| |--------------|
|7|---more rest--|
|8|--------------|    
| |--------------|
again
| |--------------|--------------|---------------|
|4|--------------|--------------|---------------|
|4|--------------|------Rest----|--7--7--7-8-7--|
| |-3-33-3-0-2-2-|--------------|-0--0--0-------|    
                                                     repeat once
  |--------------|--------------| 
  |--------------|--------------|
  |--7-7-7-7-7-7-|8-7-1---2-3-3-|
  |-0-0-6-0-0-0--|-----2-3-----1|

  |--------------|--------------|
  |--------------|--------------|
  |----------1---|-2-1----------|repeat
  |0-0-0-0-0--2-3|--------3-----|
  
  Chorus
  |--------------|--------------|---------------|---------------|
  |--------------|--------------|---------------|---------------|
  |7-------------|-5-----3------|---------------|---------------|
  |0----------5-5|---3-3---3---3|-2---2-2-2-2-0-|-3-3-3---3-3-3-|

  |--------------|--------------|---------------|---------------|
  |--------------|--------------|---------------|---------------|
  |7-------------|-5-----3------|---------------|---------------|
  |0----------5-5|---3-3---3---3|-2---2-2-2-2-0-|3---3-3-3-0-2-2|

  Interlude
| |--------------|--------------|---------------|---------------|
|4|--------------|--------------|---------------|---------------|
|4|--------------|--Let it ring-|---------------|---------------|
| |0-------------|--------------|---------------|---------------|

  |--------------|--------------|---------------|---------------|
  |--------------|--------------|---------------|---------------|
  |--------------|--------------|---------------|6--6---6--6----|
  |0--0-0-0-0-0-0|0--0-0-0-0-0-0|0--0-0-0-0-5-6-|------------0-5|
                                                  ~~~~~
  |--------------|--------------|---------------|---------------|
  |--------------|--------------|---------------|---------------|
  |-7------------|8-7-----------|-7-------------|-6----6-6------|
  |6--0-0-0-0-5-6|---0-0-0-0-0-5|6--0-0-0-0-5-6-|-----------0-5-|

  |--------------|--------------|---------------|---------------|
  |--------------|-8------------|---------------|---------------|
  |--7--------7--|--7-----------|--7------------|6-6-6-6-6-6--7-|
  |-6-0-0-0-0---6|---0-0-0-0-0-5|6--0-0-0-0-6-0-|------------0--|


Listen to the songs for the order

Thank you

Pleas rate


No ims
            
Hard to play? Try these video lessons and learn fast. | Correct




comments powered by Disqus
↑ Back to top | Tablatures and chords are parodies/interpretations of the original songs. You may use it for private study, scholarship, research or language learning purposes only