» » »

Metallica, Blackened Tabs (ver.9)

Artists:  A B C D E F G H I J K L M N O P Q R S T U V W X Y Z # 

Blackened Tabs (ver.9)

Metallica Tabs
 Rating:
4/5 (4 votes)
Blackened lessons Tabs too difficult? Try these video lessons and learn fast
1
                This is sure to be the best version.
EADGBE Tuning.
Dont have the intro cause as you should know,
cant be played cause it was recorded backwards.
Intro part one.
e-------------------------------------------------------|
b-------------------------------------------------------|
g-------------------------------------------------------|
d-3---------------------------------------------------8-|
a-1-------2-2---------7--7--7--7--7h8---7--7--7--7--7---|
e---0-1h2-----3-0---0--0--0--0--0------0--0--0--0--0----|

                                     V
e-------------------------------------------------------|
b-------------------------------------------------------|
g-------------------------------------------------------|
d--------------------3----------------------------------|
a---7--7--7--7--7h8--1-------2-2--------7--7--7--7--7h8-|
e-0--0--0--0--0--------0-1h2-----3-0---0--0--0--0--0----|

                                     ^Begin intro part two
e------------------------------------------------------|
b------------------------------------------------------|
g------------------------------------------------------|
d-----------------------------------3------------------|
a---7--7--7--7-----7--7--7--7--7h8--1-------2-2--------|
e-0--0--0--0--0-7-0--0--0--0----------0-1h2-----3-0----|

Ok im pretty sure you play all that 3 times.Then
comes in the main riff,which everyone has gotten wrong =).
Main Riff
e-----------------------------|
b-----------------------------|
g-----------------------------|
d-----------------------------|
a-\2------------7------8-7----|
e--0-0-0-0-0-0----0-0------9--|  (6 times)

e-----------------------------|
b-----------------------------|
g-----------------------------|
d-----------------------------|
a-5-5-5-5-5-5----5-5----------|
e-3-3-3-3-3-3-6--3-3-7-6-3----|  (1 time)

1st chorus
e|---------------------------------------------|
B|---------------------------------------------|
G|---------------------------------------------|
D|-2-2-2-2-9-----7----5----4---555--444--2-----|
A|-2-2-2-2-7-----5----3----4---555--444--2-----|
E|-0-0-0-0-0-0-0--0-0--0-0-2---333--222--0-----|

e----------------------------------|
b----------------------------------|
g----------------------------------|
d------7------5-5-5----------------|
a------5------3-3-3--4--5--------4-|
e-0-0----0-0---------2--3-0-00-0-2-|

e-------------------------------------------------------|
b-------------------------------------------------------|
g-------------------------------------------------------|
d------------------------------------8--3---------------|
a---7--7--7--7--7-7h8--7--7--7--7--7----1-------2-2-----|
e--0--0--0--0--0------0--0--0--0--0-------0-1h2-----3-0-|

Main riff (x6)
Intro 1   (x1)
Chorus 1  (x1)

e----------------------------------|
b----------------------------------|
g----------------------------------|
d----------------------------------|
a-5--------4-4---2-----------------|
e-3-0-00-0-2-2---0-----------------|

e|-------------------------------------------------------------|
B|-------------------------------------------------------------|
G|-----------------------3--------------------------------8----| (x4)
D|--------2------------2---2---------------2--------------6--8-|
A|----0-1---2-2-2-2--1--------2-2-2-2---0-1--2-2-2-2-8-8--6--6-|
E|--0-------0-0-0-0-----------0-0-0-0-0------0-0-0-0-6-6-------|

e|---------------------------------------------|
B|---------------------------------------------|
G|---------------------------------------------| (x2)
D|--2-2---------2-2---------2-2---------2-1----|
A|--2-2---------2-2---------2-2---------2-1----|
E|------0-0-0-0-----0-0-0-0-----0-0-0-0--------|

e|-----------------------------------------------|
B|-----------------------------------------------|
G|-----------------------------------------------| X1
D|-----------------------------------------------|
A|----3-4---------4-4---------4-4---------4-3----|
E|--0-1-2-2-2-2-2-2-2-2-2-2-2-2-2-2-2-2-2-2-1----|

Solo: missing some parts,
i tried just putting Mcnuggets solo on here but
refer to his solo.Maybe mine will work just fine

e|----------------------------------------------\-|
B|------------------------------------------------|
G|------------------------------------------------|
D|------7-9-------7-9-------7-9--10/7--9h10p9-----|
A|-10/7-9-10-10/7-9-10-10/7-9-10------10h12p10----|
E|----------------------------------------------\-|
                                                 \ X2
e|------------------------------------------------\-|
B|--------------------------------------------------|
G|----------------7-9-------7-9--11--9h11p9---------|
D|------7-9-------9-10-10/7-9-10-12-10h12p10-9--7---|
A|-10/7-9-10-10/7----------------------------10-9---|
E|--------------------------------------------------|

e|---------------------------------------------------------------------------|
B|----------------------------------------------------------7-8----7-8-10-8--|
G|------7-9-------7-9-------7-9--11--9h11p9-------7-9-------7-9-9--7-9-11-9--|
D|-10/7-9-10-10/7-9-10-10/7-9-10-12-10h12p10-10/7-9-10-10/7-----10-----------|
A|---------------------------------------------------------------------------|
E|---------------------------------------------------------------------------|

e|--------------------------------------------------7--------7-8--7h8p7-------|
B|-------7-8----7-8----7-8-10-8h10p8----7-8----10/7-8-8-10/7-8-10-8h10p8-8-10-|
G|-9--9--7-9-9--7-9-9--7-9-11-9h11p9-9--7-9-9---------9------------------9----|
D|-10-10-----10-----10---------------10-----10--------------------------------|
A|----------------------------------------------------------------------------|
E|----------------------------------------------------------------------------|

e|-------------------------------7-8-8-7----7---------------------------------|
B|-8---7-8---7-8---7-8---7-8---7---------10---10-8-10-8-7-8-7---7-------------|
G|-9/9-----9-----9-----9-----9--------------------------------9---9-7-9-7-6-7-|
D|----------------------------------------------------------------------------|
A|----------------------------------------------------------------------------|
E|----------------------------------------------------------------------------|

e|---------------------------------------7-9-7h9p7----7-9-10-12-12-10-9-7---7-|
B|--------------------7-8-7h8p7---7-8-11-----------11---------------------11--|
G|6-----6h7p6---6-7-9-----------9---------------------------------------------|
D|--7-9-------9---------------------------------------------------------------|
A|----------------------------------------------------------------------------|
E|----------------------------------------------------------------------------|

e|-9-10-12-9--t19p12-t19p10-t19p10p9-t18p10-t18p8-t18p8p7--------------------|
B|-------------------------------------------------------t17p8-t17p7-t17p7p5-|
G|---------------------------------------------------------------------------|
D|---------------------------------------------------------------------------|
A|---------------------------------------------------------------------------|
E|---------------------------------------------------------------------------|

e|---------------------------------------------------|
B|-t17p8-t17p7-t17p7p5-t17p8p7-t17p8p7-t17p8p7p5\3/5-|
G|---------------------------------------------------|
D|---------------------------------------------------|
A|---------------------------------------------------|
E|---------------------------------------------------|

e|-12^-12^-12^-p10-12-10h12p10-9-10-9-10-9-7-6-19^-19^--18-15-14-15-15p14-|
B|-10^-10^-10^-p8--10--8h10p8--7-8--7-8--7-----17^-17^--16-13-12-13-13p12-|
G|------------------------------------------------------------------------|
D|------------------------------------------------------------------------|
A|------------------------------------------------------------------------|
E|------------------------------------------------------------------------|

e|----15p14----12-14-18-14-12-18-14-12-18-14-12-18-14-12-18-14-12-18-14-12-|
B|-17-13p12-15-------------------------------------------------------------|
G|-14-------12-------------------------------------------------------------|
D|-------------------------------------------------------------------------|
A|-------------------------------------------------------------------------|
E|-------------------------------------------------------------------------|

e|-18-14-12-18-14-12-18-14-12-18-14-12-19----------------------------------|
B|-------------------------------------------------------------------------|
G|-------------------------------------------------------------------------|
D|-----------------------------------------5--5-5-5---4-4--5--5-5-5---4-4--|
A|-----------------------------------------5--5-5-5---4-4--5--5-5-5---4-4--|
E|-----------------------------------------3--3-3-3-0-2-2--3--3-3-3-0-2-2--|

e|--------------19-24-22-20-19-23-21-19-17-20-19-17-15-19-17-15-14-14-17-|
B|-------13^-------------------------------------------------------------|
G|-------13^-------------------------------------------------------------|
D|-3-3-------------------------------------------------------------------|
A|-3-3-------------------------------------------------------------------|
E|-1-1-------------------------------------------------------------------|

e|-17p15-14-12-11-12-15-14-12-10-9-10-9-10-14-12-10-9-8-9-12-10-8-7---------|
B|------------------------------------------------------------------10^-10^-|
G|--------------------------------------------------------------------------|
D|--------------------------------------------------------------------------|
A|--------------------------------------------------------------------------|
E|--------------------------------------------------------------------------|

e|--------------------------------------------------------------------------|
B|-12p10-8-7---7-8-7---7-----------7---------0---0---------0-\/\/\--12------|
G|-----------9-------9---9-7-9---7---9-7---9---7---2----------------12------|
D|---------------------------------------9-----------4-2-0----------12------|
A|--------------------------------------------------------------------------|
E|--------------------------------------------------------------------------|

e|-------------------------------------------7h8p7----7-8-8h10h12-12-10-8-7--|
B|----------------------------7-8-7---7-8-10-------10------------------------|
G|-7h9-7----5h7-5-4-5-4----/9-------9----------------------------------------|
D|-------10-------------4----------------------------------------------------|
A|---------------------------------------------------------------------------|
E|---------------------------------------------------------------------------|

e|-----------7--------------------------------------------------------|
B|-------------10p8-7--5////------------------------------------------|
G|-9-7--7-5------------5////--12p0-12p0-12p0-12p0-12p0-12p0-11p0-11p0-|
D|-9-7--7-5-----------------------------------------------------------|
A|--------------------------------------------------------------------|
E|--------------------------------------------------------------------|

e|-------------------------------------------------------------------------|
B|-------------------------------------------------------------------------|
G|-9p0-9p0-9p0-9p0-9p0-9p0-9p0-9p0-16p0-16p0-16p0-16p0-16p0-16p0-14p0-14p0-|
D|-------------------------------------------------------------------------|
A|-------------------------------------------------------------------------|
E|-------------------------------------------------------------------------|

e|---------------------------------------------------------------------------|
B|---------------------------------------------------------------------------|
G|-12p0-12p0-12p0-12p0-12p0-12p0-12p0-12p0-2p0-2p0-2h4p0-4p0-5p0-5p0-4p0-4p0-|
D|---------------------------------------------------------------------------|
A|---------------------------------------------------------------------------|
E|---------------------------------------------------------------------------|

e|-----------------------------------------------|
B|-----------------------------------------------|
G|-5p0-5p0-7p0-7p0-9p0-9p0-9p0-9p0-5^-\/\/\/\/\--|
D|---------------------------------5^-\/\/\/\/\--|
A|-----------------------------------------------|
E|-----------------------------------------------|

Intro part one (x1)
Intro part one (thrise double note)
Main riff
Intro part one

Alright so i didnt mark the palm mutes
Ill say again
I DID NOT mark palm mutes.Anyone can figure them out.
Dont b**ch about them not being there
Rate and comment thanks!
            
Submit corrections

comments powered by Disqus
↑ Back to top | Metallica Tabs for Blackened. Lyrics for acoustic guitar and electric guitar. 1 Tablatures and chords are parodies/interpretations of the original songs. You may use it for private study, scholarship, research or language learning purposes only