>
 >
Battery 5

Battery 5 Guitar Tabs

Metallica - Battery 5 chords, tabs, tablatures, lyrics

Guitar lessons | Add/correct | Request | Top 50 tabs Artists:  A B C D E F G H I J K L M N O P Q R S T U V W X Y Z 0-9

Battery 5 Guitar Tabs – Metallica

CD, Sheet music, Poster

Do you like Battery 5? Share with your friends now
Bass TabsBass Tabs v2Bass Tabs v3Bass Tabs v4Drum TabsTabsTabs v2Tabs v3Tabs v4Tabs v5
e-|---/-)Full-/-)Full---/-)Full/-)Full/-)Full-------|--------------------------------|
b-|-14-/----14-/------14-/-|-14-/---14-/-14---------|-------------15^12-15^12-15-12--|
g-|-14------14--------14---|-14-----14---14-14-12^14|-12-12^14^12------------------15|
D-|------------------------|------------------------|--------------------------------|
A-|------------------------|------------------------|--------------------------------|
E-|------------------------|------------------------|--------------------------------|

   P.M
         B5  Bb5        A5  G5   P.M............. B5 Bb5 A5
e-|-----------------------------|---------------------------|
b-|---------r---r---------r-----|---------------------------|
g-|-------4-e-3-e-------2-e-----|------------------4--3--2--|
D-|-------4-s-3-s-------2-s-5---|------------------4--3--2--|
A-|-------2-t-1-t-------0-t-5---|------------------2--1--0--|
E-|-0-----------------------3---|-0--0-0-0--0-0-0-----------|
  |                                      _______)1 1/2 step
  |                                     )Full
  |   H  P      H  P          )Full    /
e-|--------------------------/--|----15---------------------|
b-|-12^15^12--12^15^12--12-15---|---------------------------|
g-|---------15--------15--------|---------------------------|
D-|-----------------------------|---------------------------|
A-|-----------------------------|---------------------------|
E-|-----------------------------|---------------------------|

     B5  Bb5  A5   B5  Bb5  A5      P.M..............      B5   Bb5  A5
e-|-------------------------------|------------------------------------------|
b-|-------------------------------|------------------------------------------|
g-|---4---3---2----4----3----2----|-------------------------4----3----2------|
D-|---4---3---2----4----3----2----|-------------------------4----3----2------|
A-|---2---1---0----2----1----0----|-------------------------2----1----0------|
E-|-0-----------0-----------------|--0--0-0-0----0-0-0-----------------------|
  |    1 1/2 step
  |     )\
  |    /  \            __3__
  |   / )  \    ~~      P                               H  P      H  P
e-|-15-/------------15------------|------------------------------------------|
b-|-15---------17-17--17^15--17-15|-17---15-12--12-15-12^15^12--12^15^12-----|
g-|------------------------16-----|---/16-----14--------------14--------14---|
D-|-------------------------------|------------------------------------------|
A-|-------------------------------|------------------------------------------|
E-|-------------------------------|------------------------------------------|

                                           P.M.                  P.M.
   P.M.....................   B5  Bb5  A5        B5    Bb5    A5     B5   Bb5   A5
e-|---------------------------------------|-------------------------------------------|
b-|---------------------------------------|-------------------------------------------|
g-|---------------------------4----3----2-|-------4-----3-----2------4-----3-----2----|
D-|---------------------------4----3----2-|-------4-----3-----2------4-----3-----2----|
A-|---------------------------2----1----0-|-------2-----1-----0------2-----1-----0----|
E-|-0-----0-0---0-----0-0-0---------------|-0---------------------0-------------------|
  |
  | __3__ __3__ __3__        __3__          __3__ __3__ __3__       __3__  __3__ __3__
  |  P  P  P P   P P          P P   H        P P   P P   P P  H       P P   P P   P P
e-|---------------------------------------|-------------------------------------------|
b-|---------------------------------------|-------------------------------------------|
g-|-4^2^0-4^2^0-4^2^0--4-----4^2^0-2^4----|-4^2^0-4^2^0-4^2^0-2^4-0--4^2^0-4^2^0-4^2^0|
D-|-----------------------0-------------0-|-------------------------------------------|
A-|---------------------------------------|-------------------------------------------|
E-|---------------------------------------|-------------------------------------------|

                                 B5    Bb5     A5
e-|---------------------------------------------------|
b-|---------------------------------------------------|
g-|-------------------------------4-----3------2------|
D-|-------------------------------4-----3------2------|
A-|-------------------------------2-----1------0------|
E-|-0-----0--0--0-----0--0--0-------------------------|
  |
  | __3__ __3__ __3__ __3__ __3__ __3__ __3__  __3__
  |  P P   P P   P P   P P   P P   P P    P P    P P
e-|---------------------------------------------------|
b-|---------------------------------------------------|
g-|-4^2^0-4^2^0-6^4^0-6^4^0-8^6^0-8^6^0-10^8^0-10^8^0-|
D-|---------------------------------------------------|
A-|---------------------------------------------------|
E-|---------------------------------------------------|

           B5       Bb5     A5            G5    F5 P.M..........       B5    Bb5  A5
e-|------------------------------------------------|----------------------------------|
b-|---------------------------------r---------r----|----------------------------------|
g-|---------4-------3-------2-------e---------e----|--------------------4-----3----2--|
D-|---------4-------3-------2-------s------5--s--3-|--------------------4-----3----2--|
A-|---------2-------1-------0-------t------5--t--3-|--------------------2-----1----0--|
E-|-0--------------------------------------3-----1-|-0--0-0-0--0-0-0------------------|
  |
  | ___3___  ___3___ ___3___  ___3___                          ___3___        ___3___
  |   P   P   P  P    P  P    P  P                              H  P           H  P
e-|------------------------------------------------|-12-15-14-12^14^12--12------------|
b-|-12^10^0-12^10^0-12^10^0-12^10^0-14\----r-------|------------------15--15-12^14^12-|
g-|----------------------------------------e-------|----------------------------------|
D-|----------------------------------------s-------|----------------------------------|
A-|----------------------------------------t-------|----------------------------------|
E-|------------------------------------------------|----------------------------------|

        B5  Bb5 A5   B5 Bb5 A5 P.M.......... B5 Bb5 A5 Bb5 A5
e-|---------------------------|-----------------------|---------------------|
b-|---------------------------|-----------------------|-------r----r---r----|
g-|-----4---3---2-----4--3--2-|---------------4--3--2-|-3--2--e--2-e-2-e-2--|
D-|-----4---3---2-----4--3--2-|---------------4--3--2-|-3--2--s--2-s-2-s-2--|
A-|-----2---1---0-----2--1--0-|---------------2--1--0-|-1--0--t--0-t-0-t-0--|
E-|-0--------------0----------|-0--0-0-0--0-0---------|---------------------|
  |
  | __3___
  |   P              P.M.............................         A.H
e-|---------------------------|-----------------------|---------------------|
b-|-14^12---------------------|-----------------------|---------------------|
g-|------14-12----------------|-------------9-12------|-----------~~~~~-----|
D-|------------14-12----------|--------9-12------12-9-|-12-14-12-14----(14)\|
A-|------------------14-13-12-|-10-11-----------------|---------------------|
E-|---------------------------|-----------------------|---------------------|

    E5                    G5                    A5
e-|---------------------|---------------------|------------------|
b-|---------------------|---------------------|------------------|
g-|---------------------|---------------------|-2----------------|
D-|-2-------------------|-5-------------------|-2----------------|
A-|-2-------------------|-5-------------------|-0----------------|
E-|-0-------------------|-3-------------------|------------------|
  |
  |            Full               __3__
  |            )~~~A.H.            H P               Full
e-|-----------/---------|---------------------|------)-----------|
b-|-------7-10-----10-8-|-7---7-8-7^8^7-------|-----/------------|
g-|-----7---------------|---9-----------9-7-6-|-7--7--7--6--4--7-|
D-|-7/9-----------------|---------------------|------------------|
A-|---------------------|---------------------|------------------|
E-|---------------------|---------------------|------------------|

   F#5                      E5                          G5
e-|-----------------------|---------------------------|-------------------------|
b-|-----------------------|---------------------------|-------------------------|
g-|-----------------------|-2-------------------------|-------------------------|
D-|-4---------------------|-2-------------------------|-5-----------------------|
A-|-4---------------------|-0-------------------------|-5-----------------------|
E-|-2---------------------|---------------------------|-3-----------------------|
  |                                                           Full
  |                                     Full   __3__          )~~~~
  |               Full                  )~~~~~  P            /      P     P
e-|---------------)~~~~~~-|------------/--------------|----15-----15^12-15^12~~-|
b-|-6------------/--------|-------12-15-------15^12---|-12----------------------|
g-|-----7---6---7---------|----12------------------14-|-------------------------|
D-|-----------------------|/14------------------------|-------------------------|
A-|-----------------------|---------------------------|-------------------------|
E-|-----------------------|---------------------------|-------------------------|

    A5                                                                  F#5
e-|-------------------------------------------|------------------------------||
b-|-------R-----------------------------------|-R----------------------------||
g-|-2--------------E--------------------------|-------E----------------------||
D-|-2----------------------S------------------|-------------S------------4---||
A-|-0--------------------------------T--------|-------------------T------4---||
E-|-------------------------------------------|--------------------------2---||
  |
  |             ___3___                         _____3____  ___3___
  |   P     P     P  P               ___3___            P     H  P  P
e-|-20^15-20^15----------------14-14----------|------------------------------||
b-|----------------------10/12-------12\10----|-10---------------------------||
g-|-------------17^16^14-------------------12-|----12-11^12-11^12^11^9-9\----||
D-|-------------------------------------------|------------------------------||
A-|-------------------------------------------|------------------------------||
E-|-------------------------------------------|------------------------------||





Comments


Popular Metallica tabs & chords
And Justice For All 3 Bass Tabs
Am I Evil? Tabs
Broken Beat And Scarred Intro 1 Tabs
Die Die My Darlin Tabs
Escape 2 Tabs
Fade To Black 5 Tabs
Motorbreath 1 Tabs
The Small Hours Tabs
Through The Never 1 Tabs
Until It Sleeps Tabs


Song lyrics



↑ Back to top | Tablatures and chords are parodies/interpretations of the original songs. You may use it for private study, scholarship, research or language learning purposes only
© 2014 AZChords.com Contact us | Privacy policy | DMCA | Add/correct tabs | Request tabs | Top 50 tabs