>
 >
And Justice For All With

And Justice For All With Guitar Tabs

Metallica - And Justice For All With chords, tabs, tablatures, lyrics

Guitar lessons | Add/correct | Request | Top 50 tabs Artists:  A B C D E F G H I J K L M N O P Q R S T U V W X Y Z 0-9

And Justice For All With Guitar Tabs – Metallica

CD, Sheet music, Poster

Do you like And Justice For All With? Share with your friends now
Tabs
-------------------------metallica------------------------------




Intro: (clean) Gtr 1
|----------------------------------------------|
|----------------------------------------------|
|.---------------------------------------------|
|.-6-7-9---7-6h7p6-4-5-5-4-7-4-2-3-5---3-2h3p2-|
|--7-----7---------5-----5---5-3-----3---------|
|--0-------------------------------------------|

                        (x 2)
|----------------------------|
|----------------------------| 
|-----------------------2---.|     
|-0-2-2-0-2-0-0-2-2-0-2---3-.| 
|-2-----2---2-1-----1-----1--| 
|----------------------------| 

Gtr 2 (light dist)     (Gtr 1 play intro twice)
|-----------------------------------------------|
|-----------------------------------------------|
|.-------9~~---9----/7-7h9p7~~------------------|
|.-6-7-9-----------7--------------------10~-----|
|----------------9---------------7-8-10------10-|
|-----------------------------------------------|
        
 (w/ heavy dist)                         (x 2)
|-------------------------------|
|-------------------------------| 
|-.-.-.-.-.-.-.-.-.-.-.-2-3---.|     
|-0-2-2-0-2-0-0-2-2-0-2---3----.| 
|-2-2-2-2-2-2-1-1-1-1-1---1-----| 
|-------------------------------|

now both Gtrs play the intro all distorted x 1


 Riff 1:
|------------------------------|-----------------------------|
|-.----------------------------|-.-.-----.-------------------|
|-3----.-.----.-.-.----.-.-.-.-|-3-2-.-.-2-.-.-.-.-.-.---.-.-|
|-3----8-7----8-7-6----8-7-6-5-|-3-2-5-3-2-5-3-2-5-3-2-.-3-2-|
|-1----8-7----8-7-6----8-7-6-5-|-----5-3---5-3-2-5-3-2-5-3-2-|
|------6-5----6-5-4----6-5-4-3-|-----------------------5-----|

|-----------------------------------|
|-----------------------------------|
|-------------------.---------------|
|---3---2-----------2-.-.-.-.-.-.-.-|
|---3---2---5---3---2-5-3-2-5-3-2-0-|
|-----------5---3-----5-3-2-5-3-2-0-|

 Riff 2                                                         (x 4)
|--------------------------------|-----------------------------------|
|--------------------------------|-----------------------------------|
|--------------------------------|.---------------------------------.|
|-2------------------------(2)---|.-(2)-------------------------(2)-.|
|-2------------------------(2)---|--(2)-------------------------(2)--|
|-0------------------------(0)---|--(0)-------------------------(0)--|

 Riff 3: (x 4)
|------------------------------------------------|
|------------------------------------------------|
|-.-.----.-.------------------.-.----------------|
|-8-8-7--8-8-7---------------8-8-7---------------|
|-8-8-7--8-8-7----5h7-7-5----8-8-7----5h7-7-5----|
|-6-6-5--6-6-5--0---------7--6-6-5--0---------7--|

 Riff 4:        E5                     A5
                <>                     <>
|--------------|----------------------|---------------------------|
|--------------|----------------------|---------------------------|
|-.-.----.-.---|-11b-11b11br-9--------|-11b-11b11br-9----------7--|
|-8-8-7--8-8-7-|----------------10109-|----------------10107-10-9-|
|-8-8-7--8-8-7-|----------------------|---------------------------|
|-6-6-5--6-6-5-|----------------------|---------------------------|

                                         (end Riff 4)
E5                      A5                   F5_  E5
<>                      <>                    / / /
|----------------------|----------------------------|
|-11b-11b11br-9--------|-11b-11b11br-9--------------|
|----------------10109-|----------------10109-10109-|
|----------------------|----------------------------|
|----------------------|----------------------------|
|----------------------|----------------------------|

|---------------------------------|
|---------------------------------|
|--------------.-.-.--------------|
|--------------8-8-7--------------|
|---5h7-7-5----8-8-7----5h7-7-5---|
|-0---------7--6-6-5--0---------7-|


Riff 3 (x 1)

 Riff 5:
|-------------------------------------------------|
|-------------------------------------------------|
|-.-.----.-.------.----.--------------.----.------|
|-8-8-7--5-5-4----2--x-2-2-------3----2--x-2--2---|
|-8-8-7--5-5-4--.-2--x-2-2---.-.-3--.-2--x-2--2---|
|-6-6-5--3-3-2--0-0--x-0-0---0-0-1--0-0--x-0--0---|

|---------------------------------------------------------------|
|---------------------------------------------------------------|
|-.-.----.-.------.----.--------------.----.------.-.----.-.----|
|-8-8-7--8-8-7----2--x-2-2-------3----2--x-2--2---8-8-7--8-8-8\-|
|-8-8-7--8-8-7--.-2--x-2-2---.-.-3--.-2--x-2--2---8-8-7--8-8-8\-|
|-6-6-5--6-6-5--0-0--x-0-0---0-0-1--0-0--x-0--0---6-6-5--6-6-6\-|

Verse 1

 Riff 6: (x 4)
|-------------------------------------------------|
|-------------------------------------------------|
|--------.-------------------.------.-.----.-.----|
|---2--x-2-2-------3----2--x-2--2---8-8-7--8-8-7--|
|-.-2--x-2-2---.-.-3--.-2--x-2--2---8-8-7--8-8-7--|
|-0-0--x-0-0---0-0-1--0-0--x-0--0---6-6-5--6-6-5--|

 Fill 1: 
|-----------------|
|-----------------|
|-----------------|
|-.-.-.-.-.-.-.-.-|
|-7-7-7-7-7-5-5-5-|
|-0-0-0-0-0-3-3-3-|

Pre-Chorus:

 Riff 7:                  
|--------------------------------|------------------------------|
|--------------------------------|------------------------------|
|.------------------------------.|------------------------------|
|.-4--.-.-.-.-.-.-4\3-2-4/5-4/5-.|-4--.-.-.-.-.-.-4\3-2-4/5-4/5-|
|--4--4-4-4-4-4-4-4\3-2-4/5-4/5--|-4--4-4-4-4-4-4-4\3-2-4/5-4/5-|
|--2--2-2-2-2-2-2-2\1-0-2/3-2/3--|-2--2-2-2-2-2-2-2\1-0-2/3-2/3-|

                          
|-------------------------------|-------------------------------------|
|-------------------------------|-------------------------------------|
|------------------------------.|---------------0h5h7----------------.|
|-4--------------4\3-2-4/5-5/7-.|-4--.-.-.-.-.-.-----0h5h7-----------.|
|-4--4-4-4-4-4-4-4\3-2-4/5-5/7--|-4--4-4-4-4-4-4----------0h5h7-0h2h3-|
|-2--2-2-2-2-2-2-2\1-0-2/3-3/5--|-2--2-2-2-2-2-2----------------------|

|-------------------------------------------------------|
|-------------------------------------------------------|
|-0h5h7-------------------4--------------4\3---4/5-4/5--|
|------0h5h7--------------2--.-.-.-.-.-.-4\3-0-4/5-4/5--|
|-----------0h5h7-0h2h3---2--2-2-2-2-2-2-2\1-0-2/3-2/3--|
|-------------------------0--0-0-0-0-0-0----------------|

Chorus

 Riff 8:
|--------------------------------------------------|
|--------------------------------------------------|
|--2----4----5----------------------5\4---4/5-4/5--|
|--2----4----5----3--2--.-.-.-.-.-.-5\4-0-4/5-4/5--|
|--0----2----3----3--2--2-2-2-2-2-2-3\2-0-2/3-2/3--|
|-----------------1--0--0-0-0-0-0-0----------------|

|-------------------------------------------|------------------------|
|-------------------------------------------|------------------------|
|-2----4----------------------5\4---4/5-5/7-|-2---4-------5----------|
|-2----4----3--2--.-.-.-.-.-.-5\4-0-4/5-5/7-|-2---4---5---5---3---3/-|
|-0----2----3--2--2-2-2-2-2-2-3\2-0-2/3-3/5-|-0---2---5---3---3---3/-|
|-----------1--0--0-0-0-0-0-0---------------|---------3-------1---1/-|

Riff 3 (x 2)
Riff 5
Verse
Fill 1 (x 1)
Pre-chorus
Chorus

Riff 3 (x 2)
Riff 1
Riff 2 (first bar only)

 Both Gtrs               Gtr 2 (Gtr 1 play pre-chorus x2)
|-----------------------|--------------------------------------------|
|-----------------------|--------8-7---------------------------------|
|-----------------0h5h7-|-----9-------9--7-544~-4-5p4---------------|
|------------0h5h7------|-/9--------------------------7-5-3-3h5p3\2~-|
|-0h2h3-0h5h7-----------|--------------------------------------------|
|-----------------------|--------------------------------------------|

|-----------------------------------------------------------|
|--------8-7--5-h7p5\3--------8h10-8--7-h8p7\5---------/12--|
|-----9--------------------9------------------------9-------|
|-/9-------------------/9-----------------------/9----------|
|-----------------------------------------------------------|
|-----------------------------------------------------------|

|---------------------------------------------------------------|
|-12p10p8-12p10p8-12p10p8\7-10p8p7------------------------------|
|----------------------------------11p9p7-11p9p7-11p9p7\5-9p7p5-|
|---------------------------------------------------------------|
|---------------------------------------------------------------|
|---------------------------------------------------------------|

|-----------------------------------------------------------|
|---------------------------------------------.-.----.-.----|
|-0h5h7----------------0h5h7------------------5-5-4--5-5-4--|
|------0h5h7----------------0h5h7-------------5-5-4--5-5-4--|
|-----------0h5h7-0h2h3----------0h5h7-0h2h3--3-3-2--3-3-2--|
|-----------------------------------------------------------|


Solo
====

|--------------------14----17b-r--17-14-17p1417p14---19p1420p1420p14-|
|-17---14---------------14------------------------17-----------------|
|-16b--14-----14-16b-------------------------------------------------|
|----------16--------------------------------------------------------|
|--------------------------------------------------------------------|
|--------------------------------------------------------------------|

|---19p141717p1417p14---14-14-----------------------------------------|
|-17-----------------17----17b~----14-16b-16b-16br-14h16-14b----16-14~|
|----------------------------------14-16b-16b-16br-14----14b----16-14~|
|-------------------------------16---------------------------16-------|
|---------------------------------------------------------------------|
|---------------------------------------------------------------------|

|----14-17-~~~---------------------17p14-----------------------------|
|----14-16b~~~-141417p14---1417p14-----1714---1417p14---------------|
|-16-----------16b-------16b----------------16b-------16-14----14-16-|
|-----------------------------------------------------------16-------|
|--------------------------------------------------------------------|
|--------------------------------------------------------------------|

                                                       hold bend......
|-------------------------------17b17b~~-----------------------------|
|-14h17-17brp14-17brp14-17brp14----------x----------------------------|
|----------------------------------------16p14h16b-16-16b-16-16-16-16-|
|---------------------------------------------------------------------|
|---------------------------------------------------------------------|
|---------------------------------------------------------------------|

.......
|--------------------22p19p00021p17p00018p15p00017p14p000-|
|-----------17b~~~~~--------------------------------------|
|-16-16rp14-----------------------------------------------|
|---------------------------------------------------------|
|---------------------------------------------------------|
|---------------------------------------------------------|

|22p19p00021p17p00018p15p00017p14p00019p017p015p014p017p015p014p012p0-|
|---------------------------------------------------------------------|
|---------------------------------------------------------------------|
|---------------------------------------------------------------------|
|---------------------------------------------------------------------|
|---------------------------------------------------------------------|

                                           harm.
|-15p014p012p010p010p8p7------10p8p7---------------|
|-----------------------10p8p7------10p8p0-5-\-----|
|------------------------------------------5--\----|
|------------------------------------------(w.-\---|
|------------------------------------------trem-\--|
|-------------------------------------------bar)-\-|

Riff 9: (x 4)
|------------------------------------------------------|
|------------------------------------------------------|
|----------------------------------------.-.----.-.----|
|---22-----2--2------3----22-----2--2/---8-8-7--8-8-7--|
|-.-22-.-.-2--2--.-.-3--.-22-.-.-2--2/---8-8-7--8-8-7--|
|-0-00-0-0-0--0--0-0-1--0-00-0-0-0--0/---6-6-5--6-6-5--|

Riff 6 (x 3)                                              halftime feel
|---------------------------------------------------------------------|
|---------------------------------------------------------------------|
|-.-.----.-.----.-.----.-.----.-.----.-.----.-.----.-.----------------|
|-7-7-6--7-7-6--6-6-5--6-6-5--5-5-4--5-5-4--5-5-4--5-5-4--3-.-.-.-.-.-|
|-7-7-6--7-7-6--6-6-5--6-6-5--5-5-4--5-5-4--5-5-4--5-5-4--3-3-3-3-3-3-|
|-5-5-4--5-5-4--4-4-3--4-4-3--3-3-2--3-3-2--3-3-2--3-3-2--1-1-1-1-1-1-|


|----------------------------------------------|
|----------------------------------------------|
|--.-.-----.-------.-.-.-.-.-.-.-.-----.-------|
|--6-7-9---7-6h7p6-4-5-5-4-7-4-2-3-5---3-2h3p2-|
|----------------------------------------------|
|----------------------------------------------|

|------------------------------------|
|------------------------------------|
|.-.-.-.-.-.-.-.-.-.-.-2-3-----------|
|0-2-2-0-2-0-0-2-2-0-2---3-----------|
|------------------------1-----------|
|---------------------------------2/-|

|----------------------------------------------|
|----------------------------------------------|
|.---------------------------------------------|
|.-6-7-9~--7-6h7p6-4-5-5-4-7-4-2-3-5~--3-2h3p2-|
|----------------------------------------------|
|----------------------------------------------|

|------------------------------------|
|------------------------------------|
|----------------------2-3----------.|
|0-2-2-0-2-0-0-2-2-0-2---3----------.|
|------------------------------------|
|------------------------------------|

|-------------------------------------------|
|-------------------------------------------|
|.---------9~--------7-7h9-7~---------------|
|.-------9-----9---7-----------------10~----|
|--11-12---------9------------7-8-10-----10-|
|-------------------------------------------|

|----------------------------------------|
|----------------------------------------|
|---------------------------------------.|
|0-2---0h2-0h2-0h2-0-2-2-0-7/8----------.|
|------------------------------8~--------|
|----------------------------------------|

|-----------------------------------------------------|
|-----------------------------------------------------|
|-9-------9---7-------7---5-------5---4-------4---3---|
|-9-------9---7-------7---5-------5---4-------4---3---|
|-7---x-x-7-x-5---x-x-5-x-3---x-x-3-x-2---x-x-2-x-1---|
|-7---x-x-7-x-5---x-x-5-x-3---x-x-3-x-2---x-x-2-x-1---|

|-------------------------------------|
|-------------------------------------|
|-----3----3-------3----3-------3-----|
|-----3----3-------3----3-------3-----|
|-x-x-1----1---x-x-1----1---x-x-1-----|
|-x-x-1----1---x-x-1----1---x-x-1-----|


                                            (x 2)
|--------------------|---------------------------|
|--------------------|---------------------------|
|--------------------|.-------------------------.|
|--2------------(2)--|.-(2)-----------------(2)-.|
|--2------------(2)--|--(2)-----------------(2)--|
|--0------------(0)--|--(0)-----------------(0)--|

Riff 3 (x 2)

 Fill 3:
|----------------|
|----------------|
|-.-.----.-.-----|
|-8-8-7--5-5-4---|
|-8-8-7--5-5-4---|
|-6-6-5--3-3-2p0-|

Verse
Fill 1 (x 1)
Pre-Chorus
Chorus
Riff 4 (x 1)

E5                                        
<>                                         
|----------------------|---------------------------------------|
|-11b-11b11br-9--------|---------------------------------------|
|----------------10109-|-2---4-------5-----------.-.----.-.----|
|----------------------|-2---4---5---5---3---3/--8-8-7--8-8-7--|
|----------------------|-0---2---5---3---3---3/--8-8-7--8-8-7--|
|----------------------|---------3-------1---1/--6-6-5--6-6-5--|

|--------------------------------------------------|
|--------------------------------------------------|
|--------------------------------------------------|
|--------------------------------------------------|
|-/10--10-9~-7--.-.----/10--10-9~-7--.-.-.--.-.----|
|---------------8-8-7----------------8-7-5--7-8-7--|

|------------------------------------------------------|
|------------------------------------------------------|
|------------------------------------------------------|
|------------------------------------------------------|
|-/10-10-10-9~-7--.-.----/10-10-10-9~-7--.-.-.--.-.----|
|-----------------8-8-7------------------8-7-5--7-8-7--|

E5                      D5
<>                      <>
|-----------------------|-----------------------|
|-----------------------|-----------------------|
|-11b-11b11br-9---------|-11b-11b11br-9---------|
|----------------10109--|----------------10107--|
|-----------------------|-----------------------|
|-----------------------|-----------------------|

 B5                                                     D5                                  G5 F#5 E5
                                         ._. .
<>                      <>               / / /
|-----------------------|-----------------------|
|-----------------------|-----------------------|
|-11b-11b11br-9---------|-11b-11b11br-9---------|
|----------------10109--|----------------10109--|
|-----------------------|-----------------------|
|-----------------------|-----------------------|

E5                      D5
<>                      <>
|-----------------------|-----------------------|
|-----------------------|-----------------------|
|-11b-11b11br-9---------|-11b-11b11br-9---------|
|----------------10109--|----------------10107--|
|-----------------------|-----------------------|
|-----------------------|-----------------------|

 B5                                     C5    B5    A5                                G5 F#5 E5
                  ._. .                  ._. .
<>                / / /  <>              / / /
|-----------------------|-----------------------|
|-----------------------|-----------------------|
|-11b-11b11br-9---------|-11b-11b11br-9---------|
|----------------10109--|----------------10109--|
|-----------------------|-----------------------|
|-----------------------|-----------------------|

(E5)                               G5 F#5 E5 
                                         ._. .
<>                                    / / /
|------------------------|
|------------------------|
|-11b-11br----9----------|
|----------------10109\--|
|------------------------|
|------------------------|





Comments


Popular Metallica tabs & chords
And Justice For All 2 Bass Tabs
Blues Jam Bass Tabs
Fade To Black 2 Bass Tabs
Bad Seed Drum Tabs
Attitude Tabs
For Whom The Bell Tolls Tabs
Mexico City Riff 1 Tabs
Prince Charming 1 Tabs
St. Anger 1 Tabs
The Unforgiven Ii 1 Tabs


Song lyrics



↑ Back to top | Tablatures and chords are parodies/interpretations of the original songs. You may use it for private study, scholarship, research or language learning purposes only
© 2014 AZChords.com Contact us | Privacy policy | DMCA | Add/correct tabs | Request tabs | Top 50 tabs