» » »

Metallica, And Justice For All Kirks Tabs (ver.1)

Artists:  A B C D E F G H I J K L M N O P Q R S T U V W X Y Z # 

And Justice For All Kirks Tabs (ver.1)

Metallica Tabs
 Rating:
4/5 (4 votes)
And Justice For All Kirks lessons Tabs too difficult? Try these video lessons and learn fast
1
                (Part)
This is the second part of the intro 

I'm tabbin this cuz i haven't seen it done right in a tab yet
THIS IS CORRECT

e|------------------------------------------------------
B|-----5--7--7~~~~-7--------7--7h8-7--------------------
G|.-4--------9~~~~-9-----7--7--7h8-7-----5--7---9~--7---
D|.-6--7--9-----------7--7------------5--------10~------
A|--------------------9---------------7--8--10------10--
E|------------------------------------------------------

e|-----------------------------------------|---------
B|-----------------------------------------|---------
G|----------------------------------2--3--.|-3--3--3-
D|-0--2--2--0--2--0--0--2--2--0--2-----3--.|-3--3--3-
A|-2--2--2--2--2--2--1--1--1--1--1-----1---|-1--1--1-
E|-----------------------------------------|---------


This part does change after the 2nd or 3rd time, but 
this is all i can remember right now. THIS IS THE RIGHT WAY

Enjoy, adios


(tab/)
            
Submit corrections

comments powered by Disqus
↑ Back to top | Metallica Tabs for And Justice For All Kirks. Lyrics for acoustic guitar and electric guitar. 1 Tablatures and chords are parodies/interpretations of the original songs. You may use it for private study, scholarship, research or language learning purposes only