>
 >
Am I Evil 4

Am I Evil 4 Guitar Tabs

Metallica - Am I Evil 4 chords, tabs, tablatures, lyrics

Guitar lessons | Add/correct | Request | Top 50 tabs Artists:  A B C D E F G H I J K L M N O P Q R S T U V W X Y Z 0-9

Am I Evil 4 Guitar Tabs – Metallica

CD, Sheet music, Poster

Do you like Am I Evil 4? Share with your friends now
Tabs
----------------------------------------------------------------------------
                       Am I Evil? - Metallica
----------------------------------------------------------------------------

Tuning:Standard(EADGBe)

| /  slide up
| \  slide down
| h  hammer-on     
| p  pull-off      
| ~  vibrato       
| +  harmonic      
| .  Palm Mute note
| x  Mute note

Guitar1 = Rythym
Guitar2 = Lead

Intro Part 1 (Guitars1&2)
|-----------------------|
|-----------------------|
|-9-----7-10-11-----12--|
|-9-----7-10-11-----12--|
|-7-----5-8--9------10--|
|-----------------------|

Intro Part 2(Guitar1)
|--------------------------------------------|
|--------------------------------------------|
|--9---------9---------9---------------------|
|--9---------9---------9---------------------|
|--7---------7---------7---------------------|
|-------0-0-0----0-0-0----0-0-0-0-0-0-0-0----|
        . . .    . . .    . . . . . . . .  

Intro Part3(Guitar2)Listen for when it comes in
|----------------------------------------------|
|----------------------------------------------|
|----------------------------------------------|
|----------------------------------------------|
|-12\2------9-9-9-9-9-9-8-------3-3-3-3-3-3-2--|
|-10\0------7-7-7-7-7-7-6-------1-1-1-1-1-1-0--|

|------------------------------------|
|------------------------------------|
|------------------------------------|
|------------------------------------|
|-9-9-9-9-9-9-8-------3-3-3-3-3-3-2--|
|-7-7-7-7-7-7-6-------1-1-1-1-1-1-0--|

|------------------------------------|
|------------------------------------|
|------------------------------------|
|------------------------------------|
|-9-9-9-9-9-9-8-------8-8-8-8-8-8-9--|
|-7-7-7-7-7-7-6-------6-6-6-6-6-6-7--|

|------------------------------------|
|------------------------------------|
|------------------------------------|
|------------------------------------|
|-9-9-9-9-9-9-8-------3-3-3-3-3-3-2--|
|-7-7-7-7-7-7-6-------1-1-1-1-1-1-0--|

Guitars 1&2Intro Part 4
|-------------------------------------------|
|-------------------------------------------|
|-----------------------9-------9---------9-|
|-7-7-7-7-7-7-9---------9-------9---------9-|
|-5-5-5-5-5-5-7---------7-------7---------7-|
|------------------0-0-0----0-0-0----0-0-0--|
                   . . .    . . .    . . . 
Intro Part 5Guitars 1&2
|----------------------------------|
|-------------5-4-5-7---7\9--9\11--|
|---------4-3----------------------|
|-----3-2--------------------------|
|-2-1------------------------------|
|0---------------------------------|


Intro Solo Guitar 2
|-------------------------------------------------|
|-0h5h8-0h5h8-0h5h8-0h5h8-0h5h8-0h5h8-0h5h8-0h5h8-|
|-------------------------------------------------|
|-------------------------------------------------|
|-------------------------------------------------|
|-------------------------------------------------|

|-------------------------------------------------|
|-0h4h7-0h4h7-0h4h7-0h4h7-0h4h7-0h4h7-0h4h7-0h4h7-|
|-------------------------------------------------|
|-------------------------------------------------|
|-------------------------------------------------|
|-------------------------------------------------|

|--------------------------------------------------------------------|
|-0h5h8-0h5h8-0h5h8-0h5h8-0h7h9-0h7h9-0h5h8-0h5h8-0h4h7-0h4h7-0h4h7--|
|--------------------------------------------------------------------|
|--------------------------------------------------------------------|
|--------------------------------------------------------------------|
|--------------------------------------------------------------------|

|--7---------|
|-7----------|
|------7-----|
|----7-------|
|----------7-|
|--------7--|

Verse(Both Guitars)
|-------------------------|
|-------------------------|
|-------------------------|
|-------------------------|
|---------5-----7-----8-7-|
|-0-0-0-0-3-0-0-5-0-0-6-5-|
  . . . .   . .   . .

Pre-Chorus (Both Guitars)
|----------------------------|
|----------------------------|
|----------------------------|
|---------7-----9-------10-9-|
|-9-9-9-9-5-9-9-7-9-9-9-8--7-|
|-7-7-7-7---7-7---7-7-7------|
  . . . .   . .   . . .

Chorus(Both Guitars
|-------------------------|
|-------------------------|
|-------------------------|
|-------------------------|
|---------5-----7-----8-7-|
|-0-0-0-0-3-0-0-5-0-0-6-5-|
  . . . .   . .   . .

After Chorus   both
|---------|
|---------|
|---------|
|-9-7-5-5-|
|-7-5-3-3-|
|---------|

Interlude Part 1 both
|-------------------------------------------------------------------------|
|-------------------------------------------------------------------------|
|-------------------------------------------------------------------------|
|---------------------------------7-------------------------------5-------|
|--7-------7----------7-------5---5-----7-------7---------7-------3---5---|
|--5--5555-5--5555----5--5555-3---------5--5555-5--5555---5--5555-----3---|
      ....    ....       ....              ....    ....      ....

Interlude Part 2 both
|-----------------------------------------------------|
|-----------------------------------------------------|
|-----------------------------------------------------|
|-----------------------7-----------------------7--7--|
|-----------------------5-----------------------5--5--|
|-0-0000-0-0000-0-0000-----0-0000-0-0000-0-0000-------|
  . .... . .... . ....     . .... . .... . ....

befor solo guitar 1
|------------|
|------------|
|------------|
|------------|
|-2----5---7-|
|-0----3---5-|

Under Solo(something like this)
|-------|Do this sevral times then|------|
|-------|                         |------|
|-------|                         |------|
|-------|                         |------|
|-------|                         |------|
|-7-7777|                         |0-0000|
  . ....                           . ....
Solo  
|----7---------7-----11--12-11h12p11----11--12-14--11h12p11----12--11------|
|------10p7-------12-----------------12---------------------12--------12-10|
|-9b---------9-------------------------------------------------------------|
|--------------------------------------------------------------------------|
|--------------------------------------------------------------------------|
|--------------------------------------------------------------------------|

|------7--10-9-7-7h9p7----7-------------------------------------7--------|
|-7/10-----------------10----10-7--10p7-----7---------------------10p7---|
|-----------------------------------------9---9-7-9p7---7-7--9b--------9-|
|-----------------------------------------------------9------------------|
|------------------------------------------------------------------------|
|------------------------------------------------------------------------|

|----------------------------7---------------------------7---------------|
|-------------9-----------------10p7------------------------10p7---------|
|-9p7---7-9-7-9--7-7---7--9b----------9--9p7---7-9-7--9b---------9--9p7--|
|-----9--------------9-----------------------9---------------------------|
|------------------------------------------------------------------------|
|------------------------------------------------------------------------|

|-------------7---------------------19-20-22-22b--15p12-14p12---12-------|
|----------------10p7-----------------------------------------14---------|
|---7-9-7--9b---------9--9p7-----7---------------------------------------|
|-9---------------------------9------------------------------------------|
|------------------------------------------------------------------------|
|------------------------------------------------------------------------|

|-15p12-14p12-----12-15p12-14p12-----12--15p12-14p12-------12------------|
|--------------14-----------------14-------------------14----------------|
|------------------------------------------------------------------------|
|------------------------------------------------------------------------|
|------------------------------------------------------------------------|
|------------------------------------------------------------------------|

|-15-14-12----12------------------------------7-10p7----9p7----10p7-------|
|----------15----15---14-12-14-----------------------7------7--------7----|
|-------------------------------12--12/7--9b------------------------------|
|-------------------------------------------------------------------------|
|-------------------------------------------------------------------------|
|-------------------------------------------------------------------------|

|-12p7----10p7-----9p7----10p7-----10-9-7------7--------------------------|
|------7--------7------7--------7-----------10---10--9-7-9----------------|
|-----------------------------------------------------------7---7---------|
|-------------------------------------------------------------------------|
|-------------------------------------------------------------------------|
|-------------------------------------------------------------------------|

|-------------------------------------------------------------------------|
|-0h4h7-0h4h7-0h4h7-0h4h7-0h5h8-0h5h8-0h5h8-0h5h8-0h4h7-0h4h7-0h4h7-0h4h7-|
|-------------------------------------------------------------------------|
|-------------------------------------------------------------------------|
|-------------------------------------------------------------------------|
|-------------------------------------------------------------------------|

|-0h4h7-0h4h7-0h4h7-0h4h7-0h5h8-0h5h8-0h5h8-0h5h8-0h4h7-0h4h7-0h4h7-0h4h7-|
|-------------------------------------------------------------------------|
|-------------------------------------------------------------------------|
|-------------------------------------------------------------------------|
|-------------------------------------------------------------------------|
|-------------------------------------------------------------------------|

|-12p8p5-12p8p5-12p8p5-12p8p5-12p8p5-12p8p5-12p8p5-12p8p5-13p8p5-13p8p5---|
|-------------------------------------------------------------------------|
|-------------------------------------------------------------------------|
|-------------------------------------------------------------------------|
|-------------------------------------------------------------------------|
|-------------------------------------------------------------------------|

|-13p8p5-13p8p5-13p8p5-13p8p5-13p8p5-13p8p5-13p9p6-13p9p6-13p9p6-13p9p6---|
|-------------------------------------------------------------------------|
|-------------------------------------------------------------------------|
|-------------------------------------------------------------------------|
|-------------------------------------------------------------------------|
|-------------------------------------------------------------------------|

|-13p9p6-13p9p6-13p9p6-13p9p6-14p10p7-14p10p7-14p10p7-14p10p7-14p10p7-----|
|-------------------------------------------------------------------------|
|-------------------------------------------------------------------------|
|-------------------------------------------------------------------------|
|-------------------------------------------------------------------------|
|-------------------------------------------------------------------------|

|-14p10p7-14p10p7-0h4h7-0h4h7-------0h4h7-------0h4h7-------0h4h7---------|
|-----------------------------0h4h7-------0h4h7-------0h4h7-------0h4h7---|
|-------------------------------------------------------------------------|
|-------------------------------------------------------------------------|
|-------------------------------------------------------------------------|
|-------------------------------------------------------------------------|

|-------------------------------------------------------------------------|
|-0h4h7-------0h4h7-------0h4h7-------0h4h7-------------------------------|
|-------0h4h7-------0h4h7-------0h4h7-------0h4h7-------0h4h7-------0h4h7-|
|-------------------------------------------------0h4h7-------0h4h7-------|
|-------------------------------------------------------------------------|
|-------------------------------------------------------------------------|

|-------------------------------------------------------------------------|
|----------------------------------------------------------------7-10-10--|
|-------0h4h7-------0h4h7------------------------------------9------------|
|-0h4h7-------0h4h7-------0h4h7--0h4h7-------0h4h7-------9/---------------|
|--------------------------------------0h4h7-------0h4h7------------------|
|-------------------------------------------------------------------------|

|-------------------------------------------------------------------------|
|-12-12-15-12-12-12-17-12-12-12-15-12-12-12-17-12-12-12-15-12-12-17-12-12-|
|-------------------------------------------------------------------------|
|-------------------------------------------------------------------------|
|-------------------------------------------------------------------------|
|-------------------------------------------------------------------------|

|-12-15p14p12-12-12-17p12-12-12-15p14p12-12-12-12-12-10-13p11p10-13p11p10-|
|-------------------------------------------------------------------------|
|-------------------------------------------------------------------------|
|-------------------------------------------------------------------------|
|-------------------------------------------------------------------------|
|-------------------------------------------------------------------------|

|------------------------------------------------------------10b-9-7-9p7--|
|------7-------------7-7-10-10b--10p7---7---------------------------------|
|-10-9-7---9-7-7--7-------------------9----9-7--9p7----7--7---------------|
|----------------------------------------------------9--------------------|
|-------------------------------------------------------------------------|
|-------------------------------------------------------------------------|

|-9-7----------------------------------------------------------------------|
|------10--10p8h10-7h8p7---------------------------------------------------|
|-------------------------7h9p7--------------------------------------------|
|--------------------------------------------------------------------------|
|--------------------------------------------------------------------------|
|--------------------------------------------------------------------------|

Outro part 1 both
|----------------------------------------------------------------------|
|----------------------------------------------------------------------|
|----------------------------------------------------------------------|
|-----9---7-7--7-7-----------------------------------------------------|
|-----7---5-5--5-5--------7p5p0----------------------------------------|
|-0-0-----------------0h5h7-------5------------------------------------|
  . .

Outto Part 2 both
|------|
|------|
|------|
|-7----|
|-5--7-|
|----5-|

Outro Part 3 both
|-------------------------|
|-------------------------|
|-------------------------|
|-------------------------|
|-------5-----7-------8-5-|
|-0-0-0-3-0-0-5-0-0-0-6-7-|
   . . .   . .   . . .

Outro Part 4 both
|------------------------------------|
|------------------------------------|
|------------------------------------|
|------------------------------------|
|-------5-----7-------8-7--7-7--5-2--|
|-0-0-0-3-0-0-5-0-0-0-6-5--5-5--3-0--|
  . . .   . .   . . .      x x

Guitar 1:
Intro Part 1:1 time
Intro Part 2:10 times
Intro Part 3:0 times
Intro Part 4:3 times
Intro Part 5:1 time
Intro Solo:0 times
Verse:16 times
Pre Chorus:4 times
Chorus:4 times
Verse:10 times
Pre Chorus:4 times
Chorus:4 times
After Chorus:1 time
Verse:1time
After Chorus:4 times
Interlude Part 1:2 times
Interlude Part 2:4 times
Interlude Part 1:2 times
Interlude Part 2:4 times
Interlude Part 1:2 times
Befor Solo:1 time
Under Solo:Many times
Solo:0 times
Interlude Part 1:2 times
Interlude Part 2:4 times
Interlude Part 1:2 times
Interlude Part 2:4 times
Interlude Part 1:4 times
Outro Part 1:4 times
Outro Part 2:1 times
Outro Part 3:5 time
Outro Part 4:1 time

Guitar 2:
Intro Part 1:1 time
Intro Part 2:0 times
Intro Part 3:1 times
Intro Part 4:3 times
Intro Part 5:1 time
Intro Solo:1 times
Verse:16 times
Pre Chorus:4 times
Chorus:4 times
Verse:10 times
Pre Chorus:4 times
Chorus:4 times
After Chorus:1 time
Verse:1time
After Chorus:4 times
Interlude Part 1:2 times
Interlude Part 2:4 times
Interlude Part 1:2 times
Interlude Part 2:4 times
Interlude Part 1:2 times
Befor Solo:0 time
Under Solo:0 times
Solo:1 time
Interlude Part 1:2 times
Interlude Part 2:4 times
Interlude Part 1:2 times
Interlude Part 2:4 times
Interlude Part 1:4 times
Outro Part 1:4 times
Outro Part 2:1 times
Outro Part 3:5 time
Outro Part 4:1 time


Lyrics:
(originally recorded by diamond head)

My mother was a witch, she was burned alive
Thankless little bitch, for the tears I cried
Take her down now, dont want to see her face
All blistered and burnt, cant hide my disgrace

Twenty-seven, everyone was nice
Gotta see em make em pay the price
See their bodies out on the ice
Take my time

Am I evil? yes, I am
Am I evil? I am man, yes, I am

As I watched my mother die, I lost my head
Revenge now I sought, to break with my bread
Taking no chances, you come with me
Ill split you to the bone, help set you free

Twenty-seven, everyone was nice
Gotta see em, make em pay the price
See their bodies out on the ice
Take my time

Am I evil? yes, I am
Am I evil? I am man, yes, I am, ooh

On with the action now, Ill strip your pride
Ill spread your blood around, Ill see you ride
Your face is scarred with steel, wounds deep and neat
Like a double dozen before ya, smells so sweet

Am I evil? yes, I am
Am I evil? I am man

Ill make my residence, Ill watch your fire
You can come with me, sweet desire
My face is long forgot, my face not my own
Sweet and timely whore, take me home

Am I evil? yes, I am
Am I evil? I am man


My soul is longing for, await my heir
Sent to avenge my mother, sweep myself
My face is long forgot, my face not my own
Sweet and timely whore, take me home

Am I evil? yes, I am
Am I evil? I am man

Am I evil? yes, I fucking am
Am I evil? I am man, yeah





Comments


Popular Metallica tabs & chords
Blackened 2 Bass Tabs
Disposable Heroes 2 Bass Tabs
Fuel Chords
Fixxxer 2 Tabs
Free Speech For The Dumb Tabs
Master Of Puppets Harmonic Tabs
My World Tabs
Orion Tabs
Sucking My Love Tabs
The Memory Remains Tabs


Song lyrics



↑ Back to top | Tablatures and chords are parodies/interpretations of the original songs. You may use it for private study, scholarship, research or language learning purposes only
© 2014 AZChords.com Contact us | Privacy policy | DMCA | Add/correct tabs | Request tabs | Top 50 tabs