>
 >
Am I Evil 3

Am I Evil 3 Guitar Tabs

Metallica - Am I Evil 3 chords, tabs, tablatures, lyrics

Guitar lessons | Add/correct | Request | Top 50 tabs Artists:  A B C D E F G H I J K L M N O P Q R S T U V W X Y Z 0-9

Am I Evil 3 Guitar Tabs – Metallica

CD, Sheet music, Poster

Do you like Am I Evil 3? Share with your friends now
Tabs
                                    Play this twice
|---------------------|-------------------------------------------------|
|---------------------|-------------------------------------------------|
|-9----7--9--10---12--|------------4----------4----------------------4--|
|-9----7--9--10---12--|--2---------2----------2----------------------2--|
|-7----5--7--8----10--|--2---2-2-2------2-2-2------2-2-2-2-2-2-2-2-2----|
|-0-------------------|--0---0-0-0-0----0-0-0-0----0-0-0-0-0-0-0-0-0-0--|


|-----------------------------------------------------------------------|
|-----------------------------------------------------------------------|
|-----------------------------------------------------------------------|
|-------------4-----3-----------------------4------3--------------------|
|--14\--2-----2-----1---------3-----2-------2------1---------3------2---|
|--12\--0---------------------1-----0------------------------1------0---|


|-----------------------------------------------------------------------|
|-----------------------------------------------------------------------|
|-----------------5------4----------------------------------------------|
|---4------3------3------2----------4-------3---------------------------|
|---2------1------------------------2-------1--------3--------2---------|
|-----------------------------0----------------------1--------0---------|


|-----------------------------------------------------------------------|
|-----------------------------------------------------------------------|
|-7-7-7-7-7-7--9----------4----------4-----------7-7-7-7-7-7-9----------|
|-7-7-7-7-7-7--9----------2----------2-----------7-7-7-7-7-7-9----------|
|-5-5-5-5-5-5--7----2-2-2------2-2-2------2-2-2--5-5-5-5-5-5-7----------|
|-------------------0-0-0-0----0-0-0-0----0-0-0-------------------------|


|-----------------------------------------------------------------------|
|-------------------------------------------------------------6--5--6---|
|-------4---------4----------7-7-7-7-7-7----------------4--3------------|
|-------2---------2----------7-7-7-7-7-7----------3--2------------------|
|-2-2-2-----2-2-2-----2-2-2--5-5-5-5-5-5----2--1------------------------|
|-0-0-0-0---0-0-0-0---0-0-0---------------0-----------------------------|


|-----------------------------------------------------------------------|
|-6/8--8/10--10/12---0^5^8-0^5^8-0^5^8-0^5^8-0^5^8-0^5^8-0^5^8-0^5^8----|
|-----------------------------------------------------------------------|
|-----------------------------------------------------------------------|
|-----------------------------------------------------------------------|
|-----------------------------------------------------------------------|

|-------------------------------------------------------------------------|
|-0^4^7-0^4^7-0^4^7-0^4^7-0^4^7-0^4^7-0^4^7-0^4^7-0^5^8-0^5^8-0^5^8-0^5^8-|
|-------------------------------------------------------------------------|
|-------------------------------------------------------------------------|
|-------------------------------------------------------------------------|
|-------------------------------------------------------------------------|


|------------------------------------------------------------------------|
|-0^7^10-0^7^10-0^5^8-0^5^8-0^4^7-0^4^7-0^4^7-0^4^7-0^4^7-0^4^7-0^4^7----|
|------------------------------------------------------------------------|
|------------------------------------------------------------------------|
|------------------------------------------------------------------------|
|------------------------------------------------------------------------|


|------------------------------|
|------(7)---------------------|
|--(7)-------------------------|
|------------(12)--------------|
|--------(12)---------(7)------|
|------------------(7)---------|

               Main Riff
|-------------------------------------------------------------------|
|-------------------------------------------------------------------|
|-------------------------------------------------------------------|
|-------------------------------------------------------------------|
|-------------5--------7-----------8----7---------------------------|
|-0--0--0--0--3--0--0--5--0--0--0--6----5---------------------------|

                 Pre Chorus
|-------------------------------------------------------------------|
|-------------------------------------------------------------------|
|-------------------------------------------------------------------|
|-----------7-------9---------10--9---------------------------------|
|--9-9-9-9--5--9-9--7--9-9-9--8---7---------------------------------|
|--7-7-7-7-----7-7-----7-7-7----------------------------------------|

             Chorus
|-------------------------------------------------------------------|
|-------------------------------------------------------------------|
|-------------------------------------------------------------------|
|-------------------------------------------------------------------|
|-------------5--------7-----------8----7---------------------------|
|-0--0--0--0--3--0--0--5--0--0--0--6----5---------------------------|


                      
|----------------------------------------------------------|
|----------------------------------------------------------|
|----------------------------------------------------------|
|-9---7---5------------------------------------------------|
|-7---5---3-------------------5--------7-----------8----7--|
|-----------------0--0--0--0--3--0--0--5--0--0--0--6----5--|


|--------------------------------------------------------------------|
|--------------------------------------------------------------------|
|--------------------------------------------------------------------|
|-9---7---5-----9---7---5-----9---7---5------------------------------|
|-7---5---3-----7---5---3-----7---5---3-----7--9--10\7---------------|
|--------------------------------------------------------------------|



|------------------------------------------------------------------------|
|------------------------------------------------------------------------|
|------------------------------------------------------------------------|
|-2----------2----------2--------------7---2----------2----------2--5----|
|-0--0-0-0-0-0--0-0-0-0-0--0-0-0-0--5--5---0--0-0-0-0-0--0-0-0-0-0--3--5-|
|-----------------------------------3----------------------------------3-|


|--------------------------------------------------------------------|
|--------------------------------------------------------------------|
|------------------------------7------------------------------7--7---|
|------------------------------7------------------------------7--7---|
|------------------------------5------------------------------5--5---|
|-0--0-0-0-0--0-0-0-0--0-0-0-0---0--0-0-0-0--0-0-0-0--0-0-0-0--------|



|---------------------------------------------------------------------|
|---------------------------------------------------------------------|
|------------------------------7------------------------------7--7--7-|
|------------------------------7------------------------------7--7--7-|
|------------------------------5------------------------------5--5--5-|
|-0--0-0-0-0--0-0-0-0--0-0-0-0---0--0-0-0-0--0-0-0-0--0-0-0-0---------|


|------------------------------------------------------------------------|
|------------------------------------------------------------------------|
|------------------------------------------------------------------------|
|-2----------2----------2--------------7---2----------2----------2--5----|
|-0--0-0-0-0-0--0-0-0-0-0--0-0-0-0--5--5---0--0-0-0-0-0--0-0-0-0-0--3--5-|
|-----------------------------------3----------------------------------3-|


|------------------------------------------------------------------------|
|------------------------------------------------------------------------|
|------------------------------------------------------------------------|
|-2----------2----------2--------------7---2----------2----------2--5----|
|-0--0-0-0-0-0--0-0-0-0-0--0-0-0-0--5--5---0--0-0-0-0-0--0-0-0-0-0--3--5-|
|-----------------------------------3----------------------------------3-|



|-----------------------------|
|-----------------------------|
|-----------------------------|
|-----------------------------|
|-2------5--7-----------------|
|-0------3--5-----------------|

Guitar Solo
   B          p       B          H  P                 H  P
|-------7----------------11-12-11^12^11----11-12-14-11^12^11---11----------|
|-----------10^7-10-10^-----------------12-------------------12---12-11-10-|
|-9^-----------------------------------------------------------------------|
|--------------------------------------------------------------------------|
|--------------------------------------------------------------------------|
|--------------------------------------------------------------------------|

   S                P    p         P      P           P        B     p
|------7--10-9-7--10^7------7------------------------------------7-------|
|-7/10-----------------10^7---10-10^7-7-10^7---7-------------------10^7--|
|--------------------------------------------9---9-7-9^7---7-7-9^--------|
|--------------------------------------------------------9---------------|
|------------------------------------------------------------------------|
|------------------------------------------------------------------------|





Comments


Popular Metallica tabs & chords
Attitude Bass Tabs
Fuel Bass Tabs
London Dungeon Bass Tabs
Blitzkrieg Drum Tabs
...And Justice For All 1 Tabs
And Justice For All Lead Intro Tabs
Dazed And Confused 1 Tabs
Die Die My Darling 1 Tabs
Saint Anger Tabs
The Struggle Within Tabs


Song lyrics



↑ Back to top | Tablatures and chords are parodies/interpretations of the original songs. You may use it for private study, scholarship, research or language learning purposes only
© 2014 AZChords.com Contact us | Privacy policy | DMCA | Add/correct tabs | Request tabs | Top 50 tabs