>
 >
Am I Evil

Am I Evil Bass Tabs

Metallica - Am I Evil chords, tabs, tablatures, lyrics

Guitar lessons | Add/correct | Request | Top 50 tabs Artists:  A B C D E F G H I J K L M N O P Q R S T U V W X Y Z 0-9

Am I Evil Bass Tabs – Metallica

CD, Sheet music, Poster

Do you like Am I Evil? Share with your friends now
Bass TabsBass Tabs v2Bass Tabs v3Drum Tabs
|---------------------------------------    ------------------------------------------|
|---------------------------------------    ------------------------------------------|
|--7--7-7-7-7--7-7-7-7--7-7-7-7-7-7-7-7-    --7--7-7-7-7--7-7-7-7--7-7-7-5-5-5-5-5-5/-|
|---------------------------------------    ------------------------------------------|

--------------------10-9~10~10h12~|
--------------9-8~----------------|
----------8-7~--------------------|
--0~--7-6~------------------------|
  |
vibrato from behind the nut
--------------------9-7-9---9-12-9-7-7---------|
--------------------------9------------9-------|
------------------------------------------9-7--|
----0-------12\0~------------------------------|

Verse

----------------------------|
----------------------------|    x12
----------------------------|
----0000-3-00-5-000-6--5----|

Pre-chorus: (2:12)

----------------------|
----------------------|    x4
--------5--7---8-7----|
----7777-77-777-------|

Chorus: (2:24) [Same as the verse]

Verse: (2:36)

Pre-chorus: (3:06)

Chorus: (3:19)

Bridge Intro: (3:31)

-------------
------------- Play 5 times
----7--5--3-- each time play corresponding part
------0--0---

Part 1:

----5------------------------|
-----------------------------|
-----------------------------|
-----------000030050006-5----|

Part 2 and 3:

----5--3------------|
---------5-3--------|
-------------5-3----|
--------------------|

Part 4 [Play the italics quickly]:

----55555557777755555------777777----|
---------------------777777----------|
-------------------------------------|
-------------------------------------|


Part 5:

----5555555555555555----|
------------------------|
------------------------|
------------------------|

Bridge pre-verse: (3:50)

----------------------------------------------|
----------------------------------------------|    x2
---------------------5-----------------3------|
----5-5555-5555-5553----5-5555-5555-555--3----|

Bridge pre-verse (at end of second round through each):

--------------------|
----577777577777----|
--------------------|
--------------------|

Bridge verse: (4:01)

---------------------------------------------------|
---------------------------------------------------|    x4
-----------------------5--------------------5-5----|
----0-0000-0000-0000-0------0-0000-0000-0000-------|

Bridge chorus
Bridge verse
Bridge chorus
Solo lead-in

------------------            -------------------|
------------------    x4      -------------------|
-------3-3--------            -------------------|
----0------5\0----            ----0-------3-5----|

Solo Part 1

----------------------------|
----------------------------|    x6
----2-2222-2222-2222-222----|
----------------------------|

Solo part 2

----------------------------|
----2-2222-2222-2222-222----|    x2
----------------------------|
----------------------------|

Solo part 1

Solo part 3

--------------------------------------------------|
--------------------------------------------------|
----0-0000-0000-0000-000--------------------------|
--------------------------1-1111-1111-1111-111----|

|--------------------------------------------------|
|--------------------------------------------------|
|----1-1111-1111-1111-111--------------------------|
|--------------------------2-2222-2222-2222-222----|

Solo part 1

Solo part 2

Solo part 1

Bridge pre-verse

Bridge verse

Bridge chorus

Post-bridge riff

-----------------------------------|
-----------------------------------|    x4
-------7---55---55--------7p5p0----|
----0-0--0----0-----0h5h7----------|

Make Sure To Leave Alot Of Comments So I Can Fix Any Errors Within The Tab Thhaannxxx!!!





Comments


Popular Metallica tabs & chords
Ain't My Bitch 1 Bass Tabs
Ain't My Bitch 2 Bass Tabs
Black Night 1 Bass Tabs
The Cure 2 Bass Tabs
Breadfan Tabs
Fade The Black Riffs Tabs
Fuel Tabs
Mercyful Fate Tabs
Mercyful Fate Medley Tabs
Real Fuel Intro Tabs


Song lyrics



↑ Back to top | Tablatures and chords are parodies/interpretations of the original songs. You may use it for private study, scholarship, research or language learning purposes only
© 2014 AZChords.com Contact us | Privacy policy | DMCA | Add/correct tabs | Request tabs | Top 50 tabs