>
 >
All Nightmare Long 5

All Nightmare Long 5 Guitar Tabs

Metallica - All Nightmare Long 5 chords, tabs, tablatures, lyrics

Guitar lessons | Add/correct | Request | Top 50 tabs Artists:  A B C D E F G H I J K L M N O P Q R S T U V W X Y Z 0-9

All Nightmare Long 5 Guitar Tabs – Metallica

CD, Sheet music, Poster

Do you like All Nightmare Long 5? Share with your friends now
Bass TabsBass Tabs v2Drum TabsTabsTabs v2Tabs v3Tabs v4Tabs v5Tabs v6Tabs v7
                                 |MetallicA|
                             |All Nightmare Long|
                               |Death Magnetic|

I decided to tab this song because some of the other tabs had some parts that didn't sound 
quite right.
# harmonics
tr - tremolo picking
~~ - let ring
(Tab is in Drop D btw.)



(this tab does not include solos)

for the most part u should know where the palm mutes go.

e|------------------------------|
b|------------------------------|
g|------------------------------|4x
d|----0--5-6-5-----0-5-------5--|
a|-----------------------------6|
D|-0------------0------3--0-----|

|--------------|
|--------------|
|--------------|2x
|--------------|
|-0----6-5--0-0|
|-0----6-5--0-0|
            * *

|---------------------------------------------------------------|
|---------------------------------------------------------------|
|---------------------------------------------------------------|
|---------------------------------------------------------------|
|-0----6-5--0-0-0-------0----6-5--0-0--0---0-0--0---6-5--0---6-5|
|-0----6-5--0-0-0-------0----6-5--0-0--0---0-0--0---6-5--0---6-5|
            * * *                 * *      * *

|--------------------------------------|
|--------------------------------------|
|--------------------------------------|
|--------------------------------------|
|--------------------------------------|
|000000000000000000000000002/2/3/3/4/4/|
 **************************############

|-------------------------------|
|-------------------------------|
|-------------------------------|
|-------------------------------|4x
|-------------------------------|
|-110-0-0-0-0-0-0-0-0-0-0-0-0-0-|
  *** * * * * * * * * * * * * *
(^^^^^not eleven)
|-----|---------------------------|       |--------------------|
|-----|----------repeat8x---------|       |--------------------|
|-----|---------------------------|+ this |--------------------|
|-----|---------------------------|       |--------------------|
|-----|------1-1---1-1------------|       |-----------1-1---1-1|
|-000-|0-0-0-1-1-0-1-1-222-333-220|       |-000-0-0-0-1-1-0-1-1|
  ***  * * *     *     *** *** ***          *** * * *     *

|--------------------|
|--------------------|
|--------------------|
|--------------------|
|--3h0--5h0--3h0--5h0|
|--3h0--5h0--3h0--5h0|


|------------------------------------------------------------|
|------------------------------------------------------------|
|------------------------------------------------------------|
|---------------------------------------------7-7~-5-5-/1010-|
|-0--0-3---------0--0-3---------0--0-3--------5-5~-3-3-/8-8--|
|-0--0-3-000000--0--0-3-000000--0--0-3-000000----------------|
         ******         ******         ******
|----------------------------------------------------------|
|----------------------------------------------------------|
|----------------------------------------------------------|
|-2---3---6--7-10-101010-101010-101010--1010121212121212---|(1st time)
|-0---1---4--5-8--8-8-8--8-8-8--8-8-8---8-8-101010101010---|
|----------------------------------------------------------|
               *  * * *  * * *  * * *   *  * ***********

|--------------------------------|
|--------------------------------|
|--------------------------------|
|-2---3---6--7----10101010101010-|
|-0---1---4--5----8-8-8-8-8-8-8--|  (2nd time)
|--------------------------------|
                  * * * * * *

 1:41

|-----------------------------------------------------------|
|-----------------------------------------------------------|
|-----------------------------------------------------------|
|-9tr--------------------------------2----------------------|
|----8tr-7tr-5tr 2tr-----------2-3-5---5-3-3h5p3-2----------|
|----------------------3tr-2tr------------------------------|
  most of it is palm muted i believe

|-----------------------------------------------------------|
|-----------------------------------------------------------|
|-----------------------------------------------------------|
|------------------------------------2----------------------|
|------------------------------2-3-5---5-3-3h5p3-2----------|
|---2tr-----------------------------------------------------|

|-------------------------------------------------------------|
|-------------------------------------------------------------|
|-------------------------------------------------------------|
|----(1:52)-----------4-------------4-----------4-------------|
|---------------------222222222-----222222222---2222222-------|
|-------------------------------3tr----------2tr--------3tr---|


|---------------------------------------------------------------------|
|---------------------------------------------------------------------|
|---------------------------------------------------------------------|
|-4--------4--------4--------4----------------------------------------|
|-2--2--3--2--2--3--2--2--3--2--2--3--2-2-2-2-2-0-0-0-2-2-2-2-2-0-0-0-|
|----2--3-----2--3-----2--3-----2--3--2-2-2-2-2-0-0-0-2-2-2-2-2-0-0-0-|
 ^^^^^^^^^^^^^^^^^^^^^^^^^^^^^^^^^^^  * * * * * * * * * * * * * * * *
(the above chord are tremolo picked by one of the guitars)
Chorus
|-----|------------------------------------------------------------|
|-----|------------------------------------------------------------|
|-----|-1010\9-9\7-7-7-----------1010\9-9\5-5-5--4-4---------------|
|-----|-----------------repeat2x-----------------------------------|
|-0-0-|-8-8-\7-7\5-5-5-----------8-8-\7-7\3-3-3--2-2-0-------------|
|-0-0-|----------------------------------------------0-------------|

(LUCK RUNS OUT-TAH)
|-------|
|-------|
|-------|
|-1-1-1-|
|-1-1-1-|
|-1-1-1-|

                                        repeat this 8x
|-------------------------------------|------------------------------|
|-------------------------------------|------------------------------|
|-------------------------------------|------------------------------|
|-------------------------------------|-7-0-8-7--0-7------5----------|
|-7-7-7-7-3-3-3-3-5-5-5-5-2-2-2-2-0---|--------------8--7---8-7-6-5--|
|-7-7-7-7-3-3-3-3-5-5-5-5-2-2-2-2-0---|------------------------------|
  * * * * * * * * * * * * * * * *

solo comes in...

interlude
|-------------------------------------------|
|-------------------------------------------|
|-------------------------------------------|
|-------------------------------------------|repeat 2x
|-12-13-12--------12-13-12------------------|
|-12-12-12-14--0--12-12-12-14--0-0-0-0-0----|
                               * * * * *

|----------------------------------------------------------------|
|----------------------------------------------------------------|
|----------------------------------------------------------------|
|-----------------7-7-7h8-8---------6-6-6h7-6--2-2-2h3-2---------|
|-12-13-12--------7-7-7---7---------6-6-6---6--2-2-2---2---------|
|-12-12-12-14--0--7-7-7---7-7-7-7-7-6-6-6---6--2-2-2---2-2-2-2-2-|
                            * * * *                      * * * *
repeat interlude twice
______________________________________________________________________


|----------------------------------------------|
|----------------------------------------------|
|----------------------------------------------|
|----------------------------------------------|
|----------------------------------------------|
|0000000000000000000000000022222222222222222222|
 **********************************************|

|----------------------------------|
|----------------------------------|
|----------------------------------|
|----------------------------------|
|7---3---5---2---------------------|
|7---3---5---2---------------------|

second solo comes in........


|--------------------------------------------|
|--------------------------------------------|
|--------------------------------------------|
|-----------------------10--9---8---7---8---9| repeat 3x
|-----------------------8---7---6---5---6---7|
|0000000000000000000000----------------------|
 **********************

|-----------------------------|
|-----------------------------|
|-----------------------------|
|-7--6--5--4--5---------------|
|-5--4--3--2--3---------------|
|---------------00000000000000|
                **************
|-------------------------------------------------------------------|
|-------------------------------------------------------------------|
|------------------|                                          |-1---|
|-------------3-2-1|repeat 6x (on the sixth time do not play  |-1---|
|-------------3-2-1|                                          |-1---|
|00000000000003-2-1|
 *************


after chorus then this.......
|----------------------------------------|
|----------------------------------------|
|----------------------------------------|x2
|----------------------------------------|
|-3h0-5h0-3h0-5h0-0-0-3h0-5h0-3h0-5h0-0-0|
|-3h0-5h0-3h0-5h0-0-0-3h0-5h0-3h0-5h0-0-0|

|----------------------------|
|----------------------------|
|----------------------------|
|-----------5-------------5--|x2
|-0--0-3------6-0--0-3------6|
|-0--0-3--0-----0--0-3--0----|

|--------------------------|
|--------------------------|
|--------------------------|
|---0-5-6~~5~~~~~~~---0-5-0|
|-------------------------0|
|-0-----------------0-----0|





Comments


Popular Metallica tabs & chords
Frantic 3 Bass Tabs
Astronomy Chords
Devils Dance Chords
Last Carress Chords
Attitude 3 Tabs
Call Of Kutulu 1 Tabs
Hell And Back Tabs
Nothing Else Matters Full With Tabs
One Tabs
Whom The Bell Tolls Tabs


Song lyrics



↑ Back to top | Tablatures and chords are parodies/interpretations of the original songs. You may use it for private study, scholarship, research or language learning purposes only
© 2014 AZChords.com Contact us | Privacy policy | DMCA | Add/correct tabs | Request tabs | Top 50 tabs