>
 >
All Nightmare Long 3

All Nightmare Long 3 Guitar Tabs

Metallica - All Nightmare Long 3 chords, tabs, tablatures, lyrics

Guitar lessons | Add/correct | Request | Top 50 tabs Artists:  A B C D E F G H I J K L M N O P Q R S T U V W X Y Z 0-9

All Nightmare Long 3 Guitar Tabs – Metallica

CD, Sheet music, Poster

Do you like All Nightmare Long 3? Share with your friends now
Bass TabsBass Tabs v2Drum TabsTabsTabs v2Tabs v3Tabs v4Tabs v5Tabs v6Tabs v7
im sure this is right its in drop d tuning tell me how close i am 


(intro)

-------------------------------------------------------------------]
-------------------------------------------------------------------]
-------------------------------------------------------------------]x2
-----5-6~-5------5-----5------------5-6~-----5-----5---------------]
---5-----------5---------6--------5--------5---------6-------------]
-0-----------0-----3-0----------0--------0-----3-0-----------------]


-------------------------------------------------------------------]
-------------------------------------------------------------------]
-------------------------------------------------------------------]
0--6--5--00---0--6--5--00---0--6--5--0-0-0---0--6--5--00-0-00-0----]
0--6--5--00---0--6--5--00---0--6--5--0-0-0---0--6--5--00-0-00-0----]
0--6--5--00---0--6--5--00---0--6--5--0-0-0---0--6--5--00-0-00-0----]


-------------------------------------------------------------------]
-------------------------------------------------------------------]
-------------------------------------------------------------------]
6-5--0---6-5-------------------------------------------------------]
6-5--0---6-5-------------------------------------------------------]
6-5--0---6-5-----000000000000000000000000000000000000000000000000--]


-------------------------------------------------------------------]
-------------------------------------------------------------------]
-------------------------------------------------------------------]
-------------------------------------------------------------------]
-------------------------------------------------------------------]
2/-12\--0000000000000000--12\3--0--21000000000000000-21000000000000]


---(--------------------------)------------------------------------]
---(--------------------------)------------------------------------]
---(--------------------------)-(x4)-------------------------------]
---(--------11----11----------)---------1-1---3---5---3---5--------]
---(--------11----11----------)---------1-1---3---5---3---5---3-5-5]
000(-210000-11-00-11-0-222-333)-------0-1-1---3-0-5-0-3-0-5-0-0---0]


-------------------------------------------------------------------]
-------------------------------------------------------------------]
----------------------------------------------------------------6-7]
3---------------3---------------3---------7-7--5-5/10--10\--7-8-6-7]
3---------3-5-5-3---------3-5-5-3---------5-5--3-3/-8---8\--7-8-4-5]
3--000000-0---0-3--000000-0---0-3--000000-------------------7-8----]


-------------------------------------------------------------------]
-------------------------------------------------------------------]
-------------------------------------------------------------------]
---------------------------------------------3---------------3-----]
8-888-888-888-888-88-1010101010101010--3-5-5-3---------3-5-5-3-----]
---------------------------------------0---0-3--000000-0---0-3-----]


-------------------------------------------------------------------]
-------------------------------------------------------------------]
-------------------------------6-7----------10---------------------]
---------7-7--5-5/10-10\---7-8-6-7----------10---999999------------]
---------5-5--3-3/-8--8\---7-8-4-5--88888888-8---------888888777755]
-000000--------------------7-8-------------------------------------]


-------------------------------------------------------------------]
-------------------------------------------------------------------]
-------------------------------------------------------------------]
-------------------------------------------------------------------]
5555222222---------------------------------------------------------]
----------33332222222222222222222222222222222222222222222222222----]



-------------------------------------------------------------------]
-------------------------------------------------------------------]
--------------------4----4----5----4---4---4---5------------6-7----]
------2-------------x----x----x----x---x---x---x--------7-8-6-7----]
2-3-5---5-3--2320---2----2----3----2---2---2---3--------7-8-4-5----]
---------------------------------------------------x\---7-8--------]



-----------(----------------------)--------------------------------]
-----------(----------------------)--------------------------------]
-----------(-7-7--1010--9-9-7-7-7-)-(x4)-------------3-3-3---------]
--------10-(-x-x---x-x--x-x-x-x-x-)------55-55-2-2---3-3-3---------]
88888888-8-(-5-5---8-8--7-7-5-5-5-)------33-33-0-0---1-1-1---------]
-----------(-0-0---0-0--0-0-0-0-0-)------------------1-1-1---------]



-------------------------------------------------------------------]
-------------------------------------------------------------------]
-(play lines 4 and 5)----------------------------------------------]
------------------------------------------0------------------------]
------------------------------------------0------------------------]
-------------------------7777333355551111-0------------------------]



                                  guitar solo
--------------------------------(----------------------------------]
--------------------------------(----------------------------------]
--------------------------------(----------------------------------]
-------7--7-7---------3---3-2-1-(-/12-----0----/12-0/12--0/12-0-/12]
-------7--7-7---------3---3-2-1-(----------------------------------]
-00000-7--7-7---33333-3---3-2-1-(----------------------------------]




----------------------------------(------------------)-------------]
----------------------------------(-----------------5)------------0]
----------------------------------(-----------------5)(x4)--7/14\-0]
-0/12--0/12-0--12\11\10\9\8\7-0-5-(7--5-757-7-5-7-5--)-------------]
----------------------------------(------------------)-------------]
----------------------------------(------------------)-------------]




-------------------------------------------------------------------]
-------------------------------------------------------------------]
420----420---420420---420---420420----420420----420---420---420----]
----420---420------420---420------420--------420---420---420---420-]
-------------------------------------------------------------------]
-------------------------------------------------------------------]




-------------------------------------------------------------------]
-------------------------------------------------------------------]
420---420---420---420---420---420---420420---420420---420---420420-]
---420---420---420---420---420---420------420------420---420-------]
-------------------------------------------------------------------]
-------------------------------------------------------------------]




-------------------------------------------------------------------]
--------------052-063-074-085-960-1070-1180-1290-13100-15120-16130-]
---420420-4-2------------------------------------------------------]
420----------------------------------------------------------------]
-------------------------------------------------------------------]
-------------------------------------------------------------------]




-------------------------------------------------------------------]
17140-18150-19160-2017-21180-22190-22190-22190-22190-22190-22190---]
-------------------------------------------------------------------]
-------------------------------------------------------------------]
-------------------------------------------------------------------]
-------------------------------------------------------------------]




---------20-(times 17)---------------------------------------------]
0-22\-----x-----------------------13-13\------13-13\------13-13\---]
----------x-----------------------12-12\------12-12\------12-12\---]
----------x------------------5/14--------5/14--------5/14----------]
----------0--------------------------------------------------------]
-------------------------20\---------------------------------------]




----------------(-------------------------------)------------------]
-----13-13\-----(-------------------------------)------------------]
-----12-12\-----(-------------------------------)-(x2)-------------]
5/14--------2-0-(-7-8-7-------7-8-7-------------)------------------]
----------------(-5---5-8-----5---5-8--5--------)------------------]
----------------(-------0---0-------0--0-0-0-0-0)------------------]





---------------------------------------0-(0)-----------------------]
--------------------------------------0--(0)(divebomb)-------------]
-------------------------------------0---(0)------------(0)--------]
------------------------------------0----(0)-----------------------]
-------------------------------------------------------------------]
0000000000000000000000000000000000---------------------------------]





-------------------------------------------------------------------]
-------------------------------------------------------------------]
320------320----320---(x2)--320------320---320----(x2)-------------]
----2--------2------2------------3-------3-----3-0-----------------]
-------------------------------------------------------------------]
-------------------------------------------------------------------]





-------------------------------------------------------------------]
-------------------------------------------------------------------]
53-053-053-053-053-053-053-053-053-053-053-053-053-053-053\2-------]
--5---5---5---5---5---5---5---5---5---5---5---5---5---5------------]
-------------------------------------------------------------------]
-------------------------------------------------------------------]





-------------------------------------------------------------------]
-------------------------------------------------------------------]
320---(x7)--320----(x8)--530----(x15)--5/14--121412--1214121412--12]
----2-----------3------------5---------------------14----------14--]
-------------------------------------------------------------------]
-------------------------------------------------------------------]






---------------------141517/24\------------------------------------]
---------------171517----------------------------------------------]
14121412--14/16----------------------------------------------------]
--------14---------------------------------------------------------]
-------------------------------------------------------------------]
---------------------------------000000000000000000000000000000000-]






-------------------------------------------------------------------]
-------------------------------------------------------------------]
-----10---9---8---7---8---9----------------------------------------]
-----10---9---8---7---8---9----------------------------------------]
------8---7---6---5---6---7----------------------------------------]
0000--8---7---6---5---6---7--000000000000000000000000000000000000--]






-------------------------------------------------------------------]
-------------------------------------------------------------------]
10---9---8---7---8---9---7----6---5---4---5------------------------]
10---9---8---7---8---9---7----6---5---4---5------------------------]
-8---7---6---5---6---7---5----4---3---2---3------------------------]
-8---7---6---5---6---7---5----4---3---2---3--0000000000000000000000]






-------------------------------------------------------------------]
-------------------------------------------------------------------]
-------------------------------------------------------------------]
----3-2-1---------------------------3-2---------1-1----1-1---------]
----3-2-1---------------------------3-2---------1-1----1-1---------]
000-3-2-1--000000000000000000000000-3-2--210000-1-1-00-1-1-0-222333]






-------------------------------------------------------------------]
-------------------------------------------------------------------]
-------------------------------------------------------------------]
-------1-1----1-1-------------0------5-1-------3---5---3---5-------]
-------1-1----1-1-------------0------5-1-------3---5---3---5-------]
210000-1-1-00-1-1-0222333-----0------5-1-------3-0-5-0-3-0-5-------]






-------------------------------------------------------------------]
-------------------------------------------------------------------]
-------------------------------------------7--------------7--------]
-----------3---5---3---5--------------5----7----------5---7----3---]
3-5-3-5----3---5---3---5--3-5-----------6--5------------6-5----3---]
0---0---0--3-0-5-0-3-0-5--0---0-3---0---------0-3---0--------0-3---]





-------------------------------------------------------------------]
-------------------------------------------------------------------]
-------7-----------------------------------------------------------]
--5----7-----3------5---------5-6---5~----------5--0---------------]
----6--5-----3--------6-----5-----------------5----0---------------]
0---------0--3----0-------0-----------------0------0---------------]





Comments


Popular Metallica tabs & chords
2 X 4 Bass Tabs
Embo 1 Bass Tabs
Blitzkrieg Drum Tabs
2 X 4 Tabs
All Nightmare Long 4 Tabs
Battery Live Tabs
Bleeding Me 1 Tabs
Charlie Brown Theme Tabs
Sanitarium 1 Tabs
The Unforgiven I 2 Tabs


Song lyrics



↑ Back to top | Tablatures and chords are parodies/interpretations of the original songs. You may use it for private study, scholarship, research or language learning purposes only
© 2014 AZChords.com Contact us | Privacy policy | DMCA | Add/correct tabs | Request tabs | Top 50 tabs