>
 >
All Nightmare Long 2

All Nightmare Long 2 Bass Tabs

Metallica - All Nightmare Long 2 chords, tabs, tablatures, lyrics

Guitar lessons | Add/correct | Request | Top 50 tabs Artists:  A B C D E F G H I J K L M N O P Q R S T U V W X Y Z 0-9

All Nightmare Long 2 Bass Tabs – Metallica

CD, Sheet music, Poster

Do you like All Nightmare Long 2? Share with your friends now
Bass TabsBass Tabs v2Drum TabsTabsTabs v2Tabs v3Tabs v4Tabs v5Tabs v6Tabs v7
All Nightmare Long
Metallica
Death Magnetic
BASS TAB
Tuning: Drop D (D, A, D, G,)

(Only tune the 4th string to Drop D)

0:16                       0:24                        0:27
|-------------------------|---------------------------|-----------------|
|-*---------------------*-|---------------------------|-----------------|
|-*---------------------*-|---------------------------|-----------------|
|--0-------6---5----0--0--|--0--------6---5----0-0-0--|--0--------6---5-|

         0:30          (x3) 0:37                           (x4)
---------|----------------|-----------------------------------|
---------|-*------------*-|-*-------------------------------*-|
---------|-*------------*-|-*-------------------------------*-|
---0--0--|--0------0---0--|--0-0-0-0-0-0-0-0-0-0-0-0-0-0-0-0--|

0:42                                       (x4)
|---------------------------------------------|
|-*-----------------------------------------*-|
|-*-----------------------------------------*-|
|--3-2-1--0-0-0-0--0-0-0-0--0-0-0-0--0-0-0-0--|

0:53                                        (x4)
|----------------------------------------------|
|-*------------------------------------------*-|
|-*------------------------------------------*-|
|--3-2-1--0-0-0-0--1--1--0-0-0-0--3-2-1-3-2-1--|

 1:03                                                  (x3)
|--------------------------------------------------------|
|-*----------------------------------------------------*-|
|-*----------------------------------------------------*-|
|--3-2-1--0-0-0-0--0-0-0--1--1--0--0--1--1--3-2-1-3-2-1--|

1:12                                        1:14
|-------------------------------------------|-----------|
|-------------------------------------------|-*-------*-|
|-------------------------------------------|-*-------*-|
|--3-2-1--0-0-0-0--0-0-0--1--1--0--0--1--1--|--2--0--3--|

1:16
|------------------------------------------------------------------------|
|-*----------------------------------------------------------------------|
|-*----------------------------------------------------------------------|
|--0--0--3--0-0-0-0-0-0-0-0--0--0--3--0-0-0-0-0-0-0-0--0--0--3-0-0-0-0-0-|

                         1:27
------------------------|-----------------|
----------------------*-|-----------------|
-------5-5-5-7-7-8-9\-*-|-----------------|
-0-0-0------------------|--3---4---5---6--|

1:29
|--------------------------------------------|
|--------------------------------------------|
|--------------------------------------------|
|--5--5-5-5--5-5-5--5-5-5--5-5-5--5-5-5-5-5--|

1:31
|------------------------------------------------------------------------|
|------------------------------------------------------------------------|
|------------------------------------------------------------------------|
|--0--0--3--0-0-0-0-0-0-0-0--0--0--3--0-0-0-0-0-0-0-0--0--0--3-0-0-0-0-0-|

                         1:37
------------------------|-----------------|
------------------------|-----------------|
-------5-5-5-7-7-8-9\---|-----------------|
-0-0-0------------------|--3---4---5---6--|

1:39
|-----------------------|
|-----------------------|
|-----------------------|
|--5-5-5-5--5-5-5-5--5--|

1:41
|-----------------------------------------------------------------------|
|-----------------------------------------------------------------------|
|-----------------------------------------------------------------------|
|--0-(0)--------------------0-(0)-----------------3--------2--------3---|

                 2:03       (x4) 2:09               2:12
-----------------|-------------|-------------------|--------------------|
-----------------|-*---------*-|-*---------------*-|--------------------|
-----------------|-*-2-------*-|-*---------------*-|--------------------|
--2-----3-----2--|------2---3--|--0-0-0-0-0-2-1-0--|--3---4---5---6---5-|

---------------|
---------------|
---------------|
5-5-5-5-5-5-5--|

2:15
|------------------------------------------------------------------------|
|------------------------------------------------------------------------|
|------------------------------------------------------------------------|
|--0--0--3--0-0-0-0-0-0-0-0--0--0--3--0-0-0-0-0-0-0-0--0--0--3-0-0-0-0-0-|

                         2:21
------------------------|-----------------|
------------------------|-----------------|
-------5-5-5-7-7-8-9\---|-----------------|
-0-0-0------------------|--3---4---5---6--|

2:23
|-----------------------|
|-----------------------|
|-----------------------|
|--5-5-5-5--5-5-5-5--5--|

                                           (x4)
2:25                (x3)                       2:48
|*---------------------|---------------------*|-------------|
|-*------------------*-|----------------------|-------------|
|-*--------8-8-8-7-7-*-|--\-3--3--3-2-2-1-0---|-------------|
|*--0---0--------------|---------------------*|--0---0---0--|

2:49                                                  (x3)
|--------------------------------------------------------|
|-*----------------------------------------------------*-|
|-*----------------------------------------------------*-|
|--3-2-1--0-0-0-0--0-0-0--1--1--0--0--1--1--3-2-1-3-2-1--|

2:57                                         3:00
|-------------------------------------------|-----------|
|-------------------------------------------|-*-------*-|
|-------------------------------------------|-*-------*-|
|--3-2-1--0-0-0-0--0-0-0--1--1--0--0--1--1--|--2--0--3--|

3:02
|------------------------------------------------------------------------|
|-*----------------------------------------------------------------------|
|-*----------------------------------------------------------------------|
|--0--0--3--0-0-0-0-0-0-0-0--0--0--3--0-0-0-0-0-0-0-0--0--0--3-0-0-0-0-0-|

                         3:12
------------------------|-----------------|
----------------------*-|-----------------|
-------5-5-5-7-7-8-9\-*-|-----------------|
-0-0-0------------------|--3---4---5---6--|

3:15
|-----------------------|
|-----------------------|
|-----------------------|
|--5-5-5-5--5-5-5-5--5--|

3:16
|-----------------------------------------------------------------------|
|-----------------------------------------------------------------------|
|-----------------------------------------------------------------------|
|--0-(0)--------------------0-(0)-----------------3--------2--------3---|

                  3:38      (x4) 3:44               3:48
-----------------|-------------|-------------------|--------------------|
-----------------|-*---------*-|-*---------------*-|--------------------|
-----------------|-*-2-------*-|-*---------------*-|--------------------|
--2-----3-----2--|------2---3--|--0-0-0-0-0-2-1-0--|--3---4---5---6---5-|

---------------|
---------------|
---------------|
5-5-5-5-5-5-5--|

3:51
|------------------------------------------------------------------------|
|------------------------------------------------------------------------|
|------------------------------------------------------------------------|
|--0--0--3--0-0-0-0-0-0-0-0--0--0--3--0-0-0-0-0-0-0-0--0--0--3-0-0-0-0-0-|

                        3:56
------------------------|-----------------|
------------------------|-----------------|
-------5-5-5-7-7-8-9\---|-----------------|
-0-0-0------------------|--3---4---5---6--|

3:59
|-----------------------|
|-----------------------|
|-----------------------|
|--5-5-5-5--5-5-5-5--5--|

                                           (x4)
4:01                (x3)                       4:23
|*---------------------|---------------------*|-------------|
|-*------------------*-|----------------------|-------------|
|-*--------8-8-8-7-7-*-|--\-3--3--3-2-2-1-0---|-------------|
|*--0---0--------------|---------------------*|--0---0---0--|

4:25                               4:26         (x4) 4:37
|----------------------------------|---------------|-------------|
|----------------------------------|-*----------*--|-------------|
|----------------------------------|-*----------*--|-------------|
|--0-0-0--0-0-0--0-0-0--0-0-0--0---|--0--0-0-0--0--|--3---3---3--|

4:38                            (x8) 4:58                       (x3)
|----------------------------------|-------------------------------|
|-*------------------------------*-|-*---------------------------*-|
|-*------------------------------*-|-*---------------------------*-|
|--0-0-0--7--7-7--0-0-0--3--0-2-0--|--0-0-0-7-0-9-0-0-0-7-0-0-0-5--|

5:06                                     5:09        (x3) 5:16
|---------------------------------------|---------------|---------------|
|---------------------------------------|-*-----------*-|-*-------------|
|---------------------------------------|-*-----------*-|-*-------------|
|--0-0-0-7-0-9-0-0-0-7-0-0-0-0-0-0-0-0--|--0-0-0-0---0--|--0-0-0-0--9b--|

              5:21   5:22
-------------|------|----------------------------------------------------|
-----------*-|------|-*--------------------------------------------------|
-----------*-|------|-*--------------------------------------------------|
0-0-0-9b--7--|--7\--|--5-7-5-4-0-0--5-7-5-4-3-0---5-7-5-4-0-0--5-7-5-4-3-|

                                                            5:41
-----------------------------------------------------------|------------|
---------------------------------------------------------*-|-*----------|
---------------------------------------------------------*-|-*----------|
-0--5-7-5-4-0-0--3-3-3--0-0-0--3-3-2--0-0-0--3-3-1--0-0-0--|--0-0-0-0-0-|

                        5:47            (x3) 5:51          5:52
-----------------------|-------------------|--------------|--------------|
---------------------*-|-*---------------*-|--------------|-*------------|
---------------------*-|-*---------------*-|--------------|-*------------|
0-0-0-0-0-0-0-0-0-0-0--|--3-3-3-3-3-3-3-3--|--7--5--7--5--|--3-3-3-3--3--|

       5:55                5:57                6:00               6:02
------|-------------------|-------------------|------------------|------|
----*-|-*---------------*-|-*---------------*-|-*--------------*-|-*----|
----*-|-*---------------*-|-*---------------*-|-*--------------*-|-*----|
------|--5-5-5-5--5-------|--7-7-7-7--7-------|--5-5-5-5--5------|--3-3-|

     (x4) 6:05      (x4) 6:07      (x4) 6:10      (x4) 6:13      (x3)
--------|--------------|--------------|--------------|--------------|--|
------*-|-*----------*-|-*----------*-|-*----------*-|-*----------*-|--|
------*-|-*----------*-|-*----------*-|-*----------*-|-*----------*-|--|
3-3--3--|--5-5-5-5--5--|--7-7-7-7--7--|--5-5-5-5--5--|--0-0-0-0--0--|3\|

6:16                                 6:20
|-----------------------------------|-----------------------------------|
|-*------------------------------*--|-*---------------------------------|
|-*------------------------------*--|-*---------12-11-10-11-12-13-------|
|--0-0-0-0-0-0-0-0-0-0-0-0-0-0-0-0--|--0-0-0--0-------------------0-0-0-|

                       6:31
----------------------|--------------------------------------------------|
--------------------*-|--------------------------------------------------|
--------------------*-|-----------12-11-10-11-12-13-10-9-8-7-6-5---------|
0-0-0-0-0-0-0-0-0--0--|--0-0-0--0--------------------------------0-0-0-0-|

           6:39                                     (x6) 6:54
----------|--------------------------------------------|------------|
----------|-*----------------------------------------*-|--Short-----|
----------|-*--------------------------------7--6--5-*-|--Pause-----|
-0-0-0-0--|--0-0-0-0-0-0-0-0-0-0-0-0-0-0-0-0-----------|------------|

                                           (x4)
6:56                (x3)                       7:19
|*---------------------|---------------------*|-------------|
|-*------------------*-|----------------------|-------------|
|-*--------8-8-8-7-7-*-|--\-3--3--3-2-2-1-0---|-------------|
|*--0---0--------------|---------------------*|--0---0---0--|

7:20
|--------------------------------------------------------|
|-*----------------------------------------------------*-|
|-*----------------------------------------------------*-|
|--3-2-1--0-0-0-0--0-0-0--1--1--0--0--1--1--3-2-1-3-2-1--|

7:26                                   (x4)
|-----------------------------------------|
|-*-------------------------------------*-|
|-*-------------------------------------*-|
|--0-0-0-0-0-0-0-0-0-0-0-0-0-0-0-0-2-0-2--|

7:36         7:37                    (x3) 7:44       7:45         (x4)
|-----------|---------------------------|-----------|----------------|
|-----------|-*-----------------------*-|-----------|-*--------1-2-*-|
|-----------|-*-----------------------*-|-----------|-*------------*-|
|--2-0-4-0--|--2-0-4-0-2-0-3-0-2-0-3-0--|--2-0-4-0--|--0--0-1-0------|

7:49
|-------------------------------------|
|-------------------------------------|
|-------------------------------------|
|--2--0--5--6--5-(5)------3--2--3--0--|





Comments


Popular Metallica tabs & chords
Carpe Diem Baby Bass Tabs
Linus And Lucy Bass Tabs
Dirty Window 4 Tabs
Harvester Of Sorrow 2 Tabs
I Disappear 3 Tabs
Imperial March 2 Tabs
Master Of Pupets Intro Lead In Tabs
Motorbreath 2 Tabs
Phantom Lord Tabs
Welcome Home Sanitariam Tabs


Song lyrics



↑ Back to top | Tablatures and chords are parodies/interpretations of the original songs. You may use it for private study, scholarship, research or language learning purposes only
© 2014 AZChords.com Contact us | Privacy policy | DMCA | Add/correct tabs | Request tabs | Top 50 tabs