>
 >
All Nightmare Long 1

All Nightmare Long 1 Guitar Tabs

Metallica - All Nightmare Long 1 chords, tabs, tablatures, lyrics

Guitar lessons | Add/correct | Request | Top 50 tabs Artists:  A B C D E F G H I J K L M N O P Q R S T U V W X Y Z 0-9

All Nightmare Long 1 Guitar Tabs – Metallica

CD, Sheet music, Poster

Do you like All Nightmare Long 1? Share with your friends now
Bass TabsBass Tabs v2Drum TabsTabsTabs v2Tabs v3Tabs v4Tabs v5Tabs v6Tabs v7
Band: Metallica

(BTW, it's drop d tuning)

+ means palm mute
^ means harmonic
tr means tremelo pick

UPDATE: Changed intro (thx to BodaciousBob)
UPDATE: Changed Post-chorus, Verse, interlude 1, and outro(thx to Captsaw)
UPDATE: Changed Pre-chorus, Post-chorus, Interlude 1, Interlude 2 and Outro
UPDATE: made slight changes to the post-chorus
UPDATE: HUGE thanks to simo030595 with both the solos
UPDATE: made slight changes to the verse and Interlude 1

NOTE: I donít care if the intro is bass, the song is in standard, or if you drop down a
step, this is the way I tabbed it so live with it.
NOTE: please rate/re-rate this tab highly (5 stars) because i have made some MAJOR 
to it now and i think it sounds really good


Intro
clean
e|-------------------------------|
b|-------------------------------|
g|-------------------------------|x4
d|----0--5-6-5-----0-5--------5--|
a|------------------------------6|
D|-0------------0------3--0------|

distorted
|--------------|
|--------------|
|--------------|x2
|--------------|
|-0----6-5--0-0|
|-0----6-5--0-0|
            + +

|---------------------------------------------------------------|
|---------------------------------------------------------------|
|---------------------------------------------------------------|
|---------------------------------------------------------------|
|-0----6-5--0-0-0-------0----6-5--0-0--0---0-0--0---6-5--0---6-5|
|-0----6-5--0-0-0-------0----6-5--0-0--0---0-0--0---6-5--0---6-5|
            + + +                 + +

|--------------------------------------|
|--------------------------------------|
|--------------------------------------|
|--------------------------------------|
|--------------------------------------|
|000000000000000000000000002^2^3^3^4^4^|
 ++++++++++++++++++++++++++

|-------------------------------|
|-------------------------------|
|-------------------------------|
|-------------------------------|x4
|-------------------------------|
|-110-0-0-0-0-0-0-0-0-0-0-0-0-0-|
  +++ + + + + + + + + + + + + +

Post-Chorus
|----------------------------|    |--------------------|
|----------------------------|    |--------------------|
|----------------------------|x7  |--------------------|
|----------------------------|    |--------------------|
|-----------1-1---1-1--------|    |-----------1-1---1-1|
|-110-0-0-0-1-1-0-1-1-222-333|    |-110-0-0-0-1-1-0-1-1|
  +++ + + +     +     +++ +++       +++ + + +     +

|--------------------|
|--------------------|
|--------------------|
|--------------------|
|--3p0--5p0--3p0--5p0|
|--3p0--5p0--3p0--5p0|

Pre-Chorus+Pre-verse part 1
|------------------------------------------------------------|
|------------------------------------------------------------|
|------------------------------------------------------------|x2 1st time
|---------------------------------------------7-7-7-5-5-/1010|x1 2nd time
|-0--0-3-000000--0--0-3-000000--0--0-3-000000-5-5-5-3-3-/8-8-|
|-0--0-3-000000--0--0-3-000000--0--0-3-000000----------------|
         ++++++         ++++++         ++++++

Pre-chorus+Pre-verse part 2                       1st time only
|-------------------------------------------------------------|
|-------------------------------------------------------------|
|-------------------------------------------------------------|
|-2---3---6---7---10-101010-101010-101010-101012-121212121212-|
|-0---1---4---5---8--8-8-8--8-8-8--8-8-8--8-8-10-101010101010-|
|-------------------------------------------------------------|
                     + + +  + + +  + + +  + + +

rest of the time
|-----------------------------------|
|-----------------------------------|
|-----------------------------------|
|-2---3---6---7---1010101010101010--|
|-0---1---4---5---8-8-8-8-8-8-8-8---|
|-----------------------------------|

Verse
|-----------------------------------------------------------|
|-----------------------------------------------------------|
|-----------------------------------------------------------|
|-9tr----------------------------------2--------------------|
|------8tr-7tr-5tr-2tr-----------2-3-5---5-3-3h5p3-2--------|
|----------------------3333-2tr----------------------2tr----|
                                 + + +   + + +     +

|-------------------------------------------------------------|
|-------------------------------------------------------------|
|-------------------------------------------------------------|
|-------2-------------4---------5---------4---------5---------|
|-2-3-5---5-3-3h5p3---2let ring-3let ring-2let ring-3let ring-|
|-------------------------------------------------------------|
  + + +   + + +
|---------------------------------------------------------------------|
|---------------------------------------------------------------------|
|---------------------------------------------------------------------|
|-4--------4--------4--------4----------------------------------------|
|-2--2--3--2--2--3--2--2--3--2--2--3--5-5-5-5-5-0-0-0-5-5-5-5-5-0-0-0-|
|----2--3-----2--3-----2--3-----2--3--5-5-5-5-5-0-0-0-5-5-5-5-5-0-0-0-|
                                      +++++++++++++++++++++++++++++++
Chorus
|----------------------------------------------------------------|
|----------------------------------------------------------------|
|----------------------------------------------------------------|x4
|------1010-9-9\7------1010-9-9\7------1010-9-9\7----------------|
|-0-0--8-8--7-7\5-0-0--8-8--7-7\5-0-0--8-8--7-7\5-5-5-5-3-3-3-3\2|
|-0-0-------------0-0-------------0-0-------------5-5-5-3-3-3-3\2|

|-------|
|-------|
|-------|
|-1-1-1-|
|-1-1-1-|
|-1-1-1-|

Interlude 1                                repeat section x8
|-------------------------------------|------------------------------|
|-------------------------------------|------------------------------|
|-------------------------------------|------------------------------|
|-------------------------------------|---0-8-7--0-7-3--0-3-2--0-2-0-|
|-7p0003p0005p0002p000-0----3p0005p000|------------------------------|
|-7p0003p0005p0002p000-0----3p0005p000|-0----------------------------|
  ++++++++++++++++++++      ++++++++++

Solo 1
S S S S S S S S S S S S S S S S S S S S S S S S
e|--------------------------------------------------------------------------------------------|
B|--------------------------------------------------------------------------------------------|
G|--------------------------------------------------------------------------------------------|
D|--12-12-12-12-12-12-12-12-12-12-12-12-12-12-0-0-12-12-12-12-0-0-12-12-0-0-------------------|
A|--------------------------------------------------------------------------------------------|
D|--------------------------------------------------------------------------------------------|

S S S S S S S S S S S S S S S S S S S S S S S S S S S S S S S
e|--------------------------------------------------------------------------------------------|
B|--------------------------------------------------------------------------------------------|
G|--------------------------------------------------------------------------------------------|
D|--12-12-12-12-0-0-12-12-12-12-0-0-12-12-0-0-12-0-11-0-10-0-9-0-8-0-7-0-6-0-5----------------|
A|--------------------------------------------------------------------------------------------|
D|--------------------------------------------------------------------------------------------|

E. S S S E. S E Q x3 E. S S S E H
e|-----------------------------|---------------------------------------------------------------|
B|o----------------------5----o|---------------------------------------------------------------|
G|-----------------------5-----|---------------------------------------------------------------|
D|---7--5--7--5--7--5--7-------|---7--5--7--5--7---(7)-----------------------------------------|
A|o---------------------------o|---------------------------------------------------------------|
D|-----------------------------|---------------------------------------------------------------|

S S S S S S S S S S S S S S S S x6
e|---------------------------------------------------------------------------------------------|
B|---------------------------------------------------------------------------------------------|
G|--4--2-----2--4--2--4--2-----2--4--2--4--2-----2---------------------------------------------|
D|--------4-----------------4-----------------4------------------------------------------------|
A|---------------------------------------------------------------------------------------------|
D|---------------------------------------------------------------------------------------------|

S S S S S S E S S E S S E S S S S S S S S S S S S S S S S
e|---------------------------------------------------------------------------------------------|
B|-----------0--5--2--0--6--2--0--7--2--0--8--2--0--0--9--6--0--0--9--5--0--0--9--9--0--0------|
G|--4--2--4------------------------------------------------------------------------------------|
D|---------------------------------------------------------------------------------------------|
A|---------------------------------------------------------------------------------------------|
D|---------------------------------------------------------------------------------------------|

S S S S S T T S S S S S S S S S S S S S S S S S S S S S S
e|--------------------------------------------------------------------------------------------|
B|--9--9--0--0-12--9--0-15-12--0--0-16-13--0--0-17-14--0--0-18-15--0--0-19-16--0--0-20-17-----|
G|--------------------------------------------------------------------------------------------|
D|--------------------------------------------------------------------------------------------|
A|--------------------------------------------------------------------------------------------|
D|--------------------------------------------------------------------------------------------|

S S S S S S S S S S E S S E S S E S S E S S E S S E Q E
e|--------------------------------------------------------------------------------------------|
B|--0--0-21-18--0--0-22--0-22-19--0-22-19--0-22-19--0-22-19--0-22-19--0-22-19-0--22/--(22/)---|
G|--------------------------------------------------------------------------------------------|
D|---


Interlude 2
                    Repeat x2
|------------------------------|
|------------------------------|
|------------------------------|
|-7-8-7-----7-8-7--------------|
|-------8---------8-5----------|
|-0-0-0-0-0-0-0-0-0-0-0-0-0-0-0|
          +           + + + + +
|-----------------------------------------------|
|-----------------------------------------------|
|-----------------------------------------------|repeat whole Interlude x2
|-7-8-7----7--7-7-8-7---6--6-6-7-6--2--2-2-3-2--|
|-------8--7--7-7-8-7---6--6-6-7-6--2--2-2-3-2--|
|-0-0-0-0--7--7-7-8-7---6--6-6-7-6--2--2-2-3-2--|

Pre-solo
|---------------------------------------------------------------|
|---------------------------------------------------------------|
|---------------------------------------------------------------|
|---------------------------------------------------------------|
|---------------------------------------------------------------|
|-00000000000000000000000000000000222222222222222222222222222222|
  ++++++++++++++++++++++++++++++++++++++++++++++++++++++++++++++

Solo 2 (with wah)
S S Q S S Q S S E S S Q S S Q S S E
e|--------------------------------------------------------------------------------------------|
B|--------------------------------------------------------------------------------------------|
G|--3--2-----3--2-----3--2-----3--2-----3--2-----3--2-----------------------------------------|
D|--------2--------2--------2--------2--------2--------2--------------------------------------|
A|--------------------------------------------------------------------------------------------|
D|--------------------------------------------------------------------------------------------|

S S Q S S Q S S E S S Q S S Q S S E
e|--------------------------------------------------------------------------------------------|
B|--------------------------------------------------------------------------------------------|
G|--3--2-----3--2-----3--2-----3--2-----3--2-----3--2-----------------------------------------|
D|--------3--------3--------3--------3--------3--------3--------------------------------------|
A|--------------------------------------------------------------------------------------------|
D|--------------------------------------------------------------------------------------------|

S S S S S S S S S S S S S S S S x4 S S Q S S Q S S S S
e|--------------------------------------------------|------------------------------------------|
B|--------------------------------------------------|------------------------------------------|
G|--5--3--0--0--5--3--0--0--5--3--0--0--5--3--0--0--|-----3--2-----3--2-----3--2---------------|
D|--------------------------------------------------|-----------2--------2--------2--2---------|
A|--------------------------------------------------|------------------------------------------|
D|--------------------------------------------------|------------------------------------------|

S S S S S S S S S S S S S S S S
e|--------------------------------------------------------------------------------------------|
B|--------------------------------------------------------------------------------------------|
G|--3--2--------3--2--------3--2--------3--2--------------------------------------------------|
D|--------2--2--------2--2--------2--2--------2--2--------------------------------------------|
A|--------------------------------------------------------------------------------------------|
D|--------------------------------------------------------------------------------------------|

S S S S S S S S S S S S S S S S
x2
e|--------------------------------------------------------------------------------------------|
B|--------------------------------------------------------------------------------------------|
G|--3--2--------3--2--------3--2--------3--2--------------------------------------------------|
D|--------3--3--------3--3--------3--3--------3--3--------------------------------------------|
A|--------------------------------------------------------------------------------------------|
D|--------------------------------------------------------------------------------------------|

S S S S S S S S S S S S S S S S
x2
e|--------------------------------------------------------------------------------------------|
B|--------------------------------------------------------------------------------------------|
G|--5--3--0--0--5--3--0--0--5--3--0--0--5--3--0--0--------------------------------------------|
D|--------------------------------------------------------------------------------------------|
A|--------------------------------------------------------------------------------------------|
D|--------------------------------------------------------------------------------------------|

S S S S S S S S S S S S S S S S
x2
e|--------------------------------------------------------------------------------------------|
B|--------------------------------------------------------------------------------------------|
G|--------------------------------------------------------------------------------------------|
D|--5--3--0--0--5--3--0--0--5--3--0--0--5--3--0--0--------------------------------------------|
A|--------------------------------------------------------------------------------------------|
D|--------------------------------------------------------------------------------------------|

S S S S S S S S S S S S S S S S S S S S S S S T T
H
e|------------------------------------------------------------12-10----12-14--15tr-19tr--24\--|
B|-10--8-----8--10--8--10--8-----8--10--8--10--8-----8--10/12-------12------------------------|
G|--------9-------------------9-------------------9-------------------------------------------|
D|--------------------------------------------------------------------------------------------|
A|--------------------------------------------------------------------------------------------|

Bridge                          repeat this section x3
|---------------------|---------------------------------------|
|---------------------|---------------------------------------|
|---------------------|---------------------------------------|
|---------------------|-----------------------10-9--8--7--8--9|
|---------------------|-----------------------8--7--6--5--6--7|
|-00000000000000000000|0000000000000000000000-----------------|
  +++++++++++++++++++++++++++++++++++++++++++

                                  repeat this section x6 (donít last note on
|-----------------------------|------------------| sixth repeat
|-----------------------------|------------------|
|-----------------------------|------------------|
|-7--6--5--4--5---------------|-------------3-2-1|
|-5--4--3--2--3---------------|-------------3-2-1|
|---------------00000000000000|00000000000003-2-1|
                ++++++++++++++++++++++++++++

Outro-first repeat clean part of intro with distortion and wah, then this
|----------------------------------------|
|----------------------------------------|
|----------------------------------------|x2
|----------------------------------------|
|-3p0-5p0-3p0-5p0-0-0-3p0-5p0-3p0-3p0-0-0|
|-3p0-5p0-3p0-5p0-0-0-3p0-5p0-3p0-5p0-0-0|

|--------------|
|--------------|
|--------------|
|-----------5--|x4
|-0--0-3------6|
|-0--0-3--0----|

|--------------------------|
|--------------------------|
|--------------------------|
|---0-5-6-5let-ring---0-5-0|
|-------------------------0|
|-0-----------------0-----0|
                    +
Order of song:
1.Intro
2.Post-chorus
3.Pre-chorus+pre-verse parts 1 and 2
4.Verse
5.Pre-chorus part 2
6.Pre-chorus part 1
7.Pre-chorus part 2
8.Chorus
9.Post-chorus
10.Pre-verse parts 1 and 2
11.Pre-chorus part 2
12.Pre-chorus part 1
13.Pre-chorus part 2
14.Interlude 1
15.Solo 1
16.Interlude 2
17.Solo 2
18.Bridge
19.Chorus
20.Pre-verse part 1
21.Outro





Comments


Popular Metallica tabs & chords
Cunning Stunts 4 Bass Tabs
Helpless Bass Tabs
Tuesday's Gone 1 Bass Tabs
All Nightmare Long Drum Tabs
Jump In The Fire Drum Tabs
...And Justice For All 2 Tabs
Broken Beat And Scarred Intro Tabs
Damage Case 1 Tabs
Frantic 4 Tabs
Harvester Of Sorrow 3 Tabs


Song lyrics



↑ Back to top | Tablatures and chords are parodies/interpretations of the original songs. You may use it for private study, scholarship, research or language learning purposes only
© 2014 AZChords.com Contact us | Privacy policy | DMCA | Add/correct tabs | Request tabs | Top 50 tabs