» » »

Metallica, 53rd & 3rd Tabs (ver.1)

Artists:  A B C D E F G H I J K L M N O P Q R S T U V W X Y Z # 

53rd & 3rd Tabs (ver.1)

Metallica Tabs
Rating:
5/5 (9 votes)
53rd & 3rd lessons Tabs too difficult? Try these video lessons and learn fast
                Band:Metallica
Tuning:Standard
(E-A-D-G-B-e)

.=palm mute


Part 1  (Intro/Verse/Chorus)


e----------------------------|
B----------------------------|
G------------------7-7-------|
D----------2-------7-7--7-7--|
A--2-2-2-2-2--2-2--5-5--7-7--|
E--0-0-0-0-0--0-0-------5-5--|
   . . . .    . .


Part 2   (Chorus)


e----------------------------------------------------------------------|
B----------------------------------------------------------------------|
G--7-7-7-7-7-7-7-7-----------------------------------------------------|
D--7-7-7-7-7-7-7-7--7-7-7-7-7-7-7-7--5-5-5-5-5-5-5-5--7-7-7-7-7-7-7-7--|
A--5-5-5-5-5-5-5-5--7-7-7-7-7-7-7-7--5-5-5-5-5-5-5-5--7-7-7-7-7-7-7-7--|
E-------------------5-5-5-5-5-5-5-5--3-3-3-3-3-3-3-3--5-5-5-5-5-5-5-5--|


Part 3 


 Then I took out my razor blade
e-------------------------------------|------------------------------------|
B-------------------------------------|------------------------------------|
G--4-4-4-4--2--2-2---4-4-4-4--2--2-2--|-----------2--2-2-----------2--2-2--|
D--4-4-4-4--2--2-2---4-4-4-4--2--2-2--|--5-5-5-5--2--2-2--5-5-5-5--2--2-2--|
A--2-2-2-2--0--0-0---2-2-2-2--0--0-0--|--5-5-5-5--0--0-0--5-5-5-5--0--0-0--|
E-------------------------------------|--3-3-3-3----------3-3-3-3----------|

Part 4  (2nd Chorus) 

e----------------------------------------------------------------------|
B----------------------------------------------------------------------|
G-------------------4-4-4-4-4-4-4-4--2-2-2-2-2-2-2-2--4-4-4-4-4-4-4-4--|
D--2-2-2-2-2-2-2-2--4-4-4-4-4-4-4-4--2-2-2-2-2-2-2-2--4-4-4-4-4-4-4-4--|
A--2-2-2-2-2-2-2-2--2-2-2-2-2-2-2-2--0-0-0-0-0-0-0-0--2-2-2-2-2-2-2-2--|
E--0-0-0-0-0-0-0-0-----------------------------------------------------|
            
Submit corrections

comments powered by Disqus
↑ Back to top | Metallica Tabs for 53rd & 3rd. Lyrics for acoustic guitar and electric guitar. Tablatures and chords are parodies/interpretations of the original songs. You may use it for private study, scholarship, research or language learning purposes only