» » »

Cadillac Tabs (ver.1)

Artists:  A B C D E F G H I J K L M N O P Q R S T U V W X Y Z # 

Cadillac Tabs (ver.1)

Mest
Rating:
4/5 (8 votes)

Hard to play? Try these video lessons and learn fast.
                my attempted version was weak and not to descriptive. this kids is the best cadillac
tab out there. i take no credit for this.


Im Pretty sure this is the correct version of the tab.

Intro:

|----|
|----|
|-5--|
|-5--|
|-3--|
|----|

|-------------------------------------------|
|-------------------------------------------|
|---5-5-5-----------------------------------|
|---5-5-5--4--3-3-3-4-----------------------|  play 4 times
|---3-3-3--4--3-3-3-4-----------------------|
|----------2--1-1-1-2-----------------------|


Verse: Play 4 times

|-------------------------------------------------------------------------|
|-------------------------------------------------------------------------|
|-5-5-5-5-5-5-5-5---------------------------------------------------------|
|-5-5-5-5-5-5-5-5--5-5-5-5-5-5-5-5--7-7-7-7-7-7-7-7--3-3-3-3-3-3-3-3------|
|-3-3-3-3-3-3-3-3--5-5-5-5-5-5-5-5--7-7-7-7-7-7-7-7--3-3-3-3-3-3-3-3------|
|------------------3-3-3-3-3-3-3-3--5-5-5-5-5-5-5-5--1-1-1-1-1-1-1-1------|

Pm------------------------------------------------------------------


|-----------------------------------------------------------------|
|-----------------------------------------------------------------|
|--5-x-x-------------------------5--x-x---------------------------|
|--5-x-x--5-x-x--7--x-x--3--x-x--5--x-x--5--x-x--7--x-x--3--x-x---|
|--3-x-x--5-x-x--7--x-x--3--x-x--3--x-x--5--x-x--7--x-x--3--x-x---|
|---------3-x-x--5--x-x--1--x-x----------3--x-x--5--x-x--1--x-x---|

Buildup to chorus: 

|---------------------|
|---------------------|
|--5-5-5-5-5-5-5-5----|
|--5-5-5-5-5-5-5-5----|
|--3-3-3-3-3-3-3-3----|
|---------------------|

Pm----------------

Chorus: Play 4 Times

|-------------------------------------------|
|-------------------------------------------|
|---5-5-5-----------------------------------|
|---5-5-5--4--3-3-3-4-----------------------|  
|---3-3-3--4--3-3-3-4-----------------------|
|----------2--1-1-1-2-----------------------|


Play verse 4 times again
Play build up to chorus again
Play chorus 4 times again
Play chrous build up again

Chorus Part 2:

|------------------------------------------------------------------------|
|------------------------------------------------------------------------|
|---5-5-5-5-5-5-5-5------------------------------------------------------|
|---5-5-5-5-5-5-5-5--5-5-5-5-5-5-5-5--3-3-3-3-3-3-3-3--5-5-5-5-5-5-5-5---|  
|---3-3-3-3-3-3-3-3--5-5-5-5-5-5-5-5--3-3-3-3-3-3-3-3--5-5-5-5-5-5-5-5---|
|--------------------3-3-3-3-3-3-3-3--1-1-1-1-1-1-1-1--3-3-3-3-3-3-3-3---|

|------------------------------------------------------------------------|
|------------------------------------------------------------------------|
|---5---5-5-5-5----------------------------------------------------------|
|---5---5-5-5-5--5-5-5-5-5-5-5-5--3-3-3-3-3-3-3-3--5-5-5-5-5-5-5-5-------|  
|---3---3-3-3-3--5-5-5-5-5-5-5-5--3-3-3-3-3-3-3-3--5-5-5-5-5-5-5-5-------|
|----------------3-3-3-3-3-3-3-3--1-1-1-1-1-1-1-1--3-3-3-3-3-3-3-3-------|

                                                Pm ---------------

Bridge : 

|---------------|
|---------------| 
|---5-5-5-------|
|----------4----|   Play 4 times
|---------------|
|---------------|
 
 pm --------

|---------------------------------------|
|---------------------------------------|
|---5-5-5-5-----------------------------|
|---5-5-5-5--4-4-4-4--3-3-3-3--4-4-4-4--|  play 3 times
|---3-3-3-3--4-4-4-4--3-3-3-3--4-4-4-4--|
|------------2-2-2-2--1-1-1-1--2-2-2-2--|

pm -----------------------------------

Play buildup to chorus again


End Chorus:

|------------------------------------------------------------------------|
|------------------------------------------------------------------------|
|--5-5-5-5-5-5-5-5-------------------------------------------------------|
|--5-5-5-5-5-5-5-5--5-5-5-5-5-5-5-5--3-3-3-3-3-3-3-3--5-5-5-5-5-5-5-5----|  
|--3-3-3-3-3-3-3-3--5-5-5-5-5-5-5-5--3-3-3-3-3-3-3-3--5-5-5-5-5-5-5-5----|
|-------------------3-3-3-3-3-3-3-3--1-1-1-1-1-1-1-1--3-3-3-3-3-3-3-3----|

|------------------------------------------------------------------|
|------------------------------------------------------------------|
|---5---5-5-5-5----------------------------------------------------|
|---5---5-5-5-5--5-5-5-5-5-5-5-5--x-x-3-x-x-3--5-5-5-5-5-5-5-5-----|  
|---3---3-3-3-3--5-5-5-5-5-5-5-5--x-x-3-x-x-3--5-5-5-5-5-5-5-5-----|
|----------------3-3-3-3-3-3-3-3--x-x-1-x-x-1--3-3-3-3-3-3-3-3-----|

                                            Pm ---------------


|-------------------------------------------------------------------------|
|-------------------------------------------------------------------------|
|---5-5-5-5-5-5-5-5-------------------------------------------------------|
|---5-5-5-5-5-5-5-5--5-5-5-5-5-5-5-5--3-3-3-3-3-3-3-3--5-5-5-5-5-5-5-5----|
|---3-3-3-3-3-3-3-3--5-5-5-5-5-5-5-5--3-3-3-3-3-3-3-3--5-5-5-5-5-5-5-5----|X2
|--------------------3-3-3-3-3-3-3-3--1-1-1-1-1-1-1-1--3-3-3-3-3-3-3-3----|

Outro : Play 4 times

|-------------------------------------------|
|-------------------------------------------|
|---5-5-5-----------------------------------|
|---5-5-5--4--3-3-3-4-----------------------|  
|---3-3-3--4--3-3-3-4-----------------------|
|----------2--1-1-1-2-----------------------|
            
Hard to play? Try these video lessons and learn fast. | Correct




comments powered by Disqus
↑ Back to top | Tablatures and chords are parodies/interpretations of the original songs. You may use it for private study, scholarship, research or language learning purposes only