» » »

Total Maniac Tabs (ver.1)

Artists:  A B C D E F G H I J K L M N O P Q R S T U V W X Y Z # 

Total Maniac Tabs (ver.1)

Messiah
Rating:
0/5 (0 votes)

Hard to play? Try these video lessons and learn fast.
                

. palm mute
= let ring

  Intro     Riff 1
e|---------|----------------------------------------------------------------|
B|---------|----------------------------------------------------------------|
G|---------|----------------------------------------------------------------|
D|-2-------|-2------------------------------------------------------------2-|
A|----2----|----2---------------------------------------------------------2-|
E|-------0-|-------0-00-0-00-0-00-0-00-0-00-0-00-0-00-0-00-0-00-0-00-0-00-0-|
                   . .. . .. . .. . .. . .. . .. . .. . .. . .. . .. . ..

  Verse riff
e|---------|
B|---------|
G|---------|
D|-2-------|
A|----2----|
E|-------0-|

  Chorus 1st part                      Chorus 2nd part
e|------------------------------------|---------------------------------|
B|------------------------------------|---------------------------------|
G|------------------------------------|---------------------------------|
D|-----14-----14-----14-----14-14--14-|-----14-----14-----14-----14-14=-|
A|-----12-----12-----12-----12-12--12-|-----12-----12-----12-----12-12=-|
E|-0-0----0-0----0-0----0-0-----------|-0-0----0-0----0-0----0-0--------|
   . .    . .    . .    . .             . .    . .    . .    . .

  Interlude
e|--------------------------------------------|
B|--------------------------------------------|
G|--------------------------------------------|
D|-2-----2-4-5=----5-4-2=----2-4-5=----5-4-2=-|
A|----2--2-4-5=----5-4-2=----2-4-5=----5-4-2=-|
E|-------0-2-3=----3-2-0=----0-2-3=----3-2-0=-|

  Solo riff
e|------------------|
B|------------------|
G|------------------|
D|-2-4-5=----5-4-2=-|
A|-2-4-3=----5-4-2=-|
E|-0-2-3=----3-2-0=-|


SONGSTRUCTURE:
Intro: 2x
Riff 1: 1x
Verse riff: 10x
Chorus 1st part: 8x
Verse riff: 3x
Interlude: 1x
Solo riff: 4x
Chorus 1st part: 6x
Chorus 2nd part: 1x

Note 1: there are no rhythm guitar on the solo, there's just the bass line.
But I don't play solos, and I just followed the bassline on the guitar. If
you know how to play the solo, won't make any difference. If you don't play
the solo, follow the bassline, so you won't need stop playing the song on the
solo.
Note 2: on "Riff 1", I didn't count the "E's", so listen to the CD to get the
right number of notes.

Comments, sugestions, corrections are welcome. If you wanna tell about the
tab, send me an email with the subject "Total Maniac".
            
Hard to play? Try these video lessons and learn fast. | Correct




comments powered by Disqus
↑ Back to top | Tablatures and chords are parodies/interpretations of the original songs. You may use it for private study, scholarship, research or language learning purposes only