» » »

Thrashing Madness Tabs (ver.1)

Artists:  A B C D E F G H I J K L M N O P Q R S T U V W X Y Z # 

Thrashing Madness Tabs (ver.1)

Messiah
Rating:
0/5 (0 votes)

Tabs too difficult? Try these video lessons and learn fast.
                (Intro)


. palm mute
= let ring

e|-----------------------------------------------------------------|
B|-----------------------------------------------------------------|
G|-----------------9-10=---------------------------7=--------------| Guitar 1
D|-----------------7--8=---------------------------5=--------------|
A|-0-0-0-0-0-0-0-0-----------------0-0-0-0-0-0-0-0-----------------|
E|-----------------------------------------------------------------|
   . . . . . . . .                 . . . . . . . .

e|-----------------------------------------------------------------|
B|-----------------------------------------------------------------|
G|-----------------9-10=-------------------------------------------| Guitar 1
D|-----------------7--8=---------------------------5=--------------|
A|-0-0-0-0-0-0-0-0-----------------0-0-0-0-0-0-0-0-5=--------------|
E|-------------------------------------------------3=--------------|
 | . . . . . . . .                 . . . . . . . .                 |
 |                                                                 |
e|-----------------------------------------------------------------|
B|-----------------------------------------------------------------|
G|---------------------------------2=------------------------------| Guitar 2
D|---------------------------------2=--------------5=--------------|
A|---------------------------------0=--------------5=--------------|
E|-------------------------------------------------3=--------------|


e|-----------------------------------------------------------------|
B|-----------------------------------------------------------------|
G|-----------------9-10=---------------------------5=--------------| Guitar 1
D|-----------------7--8=---------------------------7=--------------|
A|-0-0-0-0-0-0-0-0-----------------0-0-0-0-0-0-0-0-----------------|
E|-----------------------------------------------------------------|
 | . . . . . . . .                 . . . . . . . .                 |
 |                                                                 |
e|-----------------------------------------------------------------|
B|-----------------------------------------------------------------|
G|-----------------------------------------------------------------| Guitar 2
D|-----------------------------------------------------------------|
A|-0-0-0-0-0-0-0-0-0---------------0-0-0-0-0-0-0-0-----------------|
E|-------------------6-6-6-6-6-6-6-----------------3-3-3-3-3-3-3-3-|
   . . . . . . . . . . . . . . . . . . . . . . . . . . . . . . . .

e|-----------------------------------------------------|
B|-----------------------------------------------------|
G|-----------------9-10=---------------------------9-7-| Guitar 1
D|-----------------7--8=---------------------------7-5-|
A|-0-0-0-0-0-0-0-0-----------------0-0-0-0-0-0-0-0-----|
E|-----------------------------------------------------|
 | . . . . . . . .                 . . . . . . . .     |
 |                                                     |
e|-----------------------------------------------------|
B|-----------------------------------------------------|
G|-------------------------------------------------9-7-| Guitar 2
D|-------------------------------------------------7-5-|
A|-0-0-0-0-0-0-0-0-0---------------0-0-0-0-0-0-0-0-----|
E|-------------------6-6-6-6-6-6-6---------------------|
   . . . . . . . . . . . . . . . . . . . . . . . .


Sorry, but I've tabbed only the intro, the rest of the song is a little bit
difficult to tab.
Comments, sugestions, corrections are welcome. If you wanna tell about the
tab, send me an email with the subject "Thrashing Madness".
            
Tabs too difficult? Try these video lessons and learn fast.


comments powered by Disqus
↑ Back to top | Tablatures and chords are parodies/interpretations of the original songs. You may use it for private study, scholarship, research or language learning purposes only