» » »

Future Aggressor Tabs (ver.1)

Artists:  A B C D E F G H I J K L M N O P Q R S T U V W X Y Z # 

Future Aggressor Tabs (ver.1)

Messiah
Rating:
0/5 (0 votes)

Hard to play? Try these video lessons and learn fast.
                

. palm mute
= let ring

  Riff 1
e|--------------------------------------------------------------|
B|--------------------------------------------------------------|
G|--------------------------------------------------------------|
E|--------------------------------------------------------------|
A|-----2-----3-----2-----2---2-3------2-----3-----2-----2---3-2-|
E|-0-0---0-0---0-0---0-0----------0-0---0-0---0-0---0-0---------|
   . .   . .   . .   . .          . .   . .   . .   . .

  Riff 2
e|-------------------------------------------------------------|
B|-------------------------------------------------------------|
G|-------------------------------------------------------------|
D|-------------------------------------------------------------|
A|-----------6-5------------6-5------5-----6-----5-----5---5-6-|
E|-3-333-333------3-333-333------3-3---3-3---3-3---3-3---------|
   . ... ...      . ... ...      . .   . .   . .   . .

  Riff 3
e|--------------------------------------------------------------|
B|--------------------------------------------------------------|
G|--------------------------------------------------------------|
D|-----2-----3-----2-----2---2-3------2-----3-----2-----2---3-2-|
A|-0-0---0-0---0-0---0-0----------0-0---0-0---0-0---0-0---------|
E|--------------------------------------------------------------|
   . .   . .   . .   . .          . .   . .   . .   . .

  Riff 4
e|-------------------------------------------------------------|
B|-------------------------------------------------------------|
G|-------------------------------------------------------------|
D|-----------6-5------------6-5------5-----6-----5-----5---5-6-|
A|-3-333-333------3-333-333------3-3---3-3---3-3---3-3---------|
e|-------------------------------------------------------------|
   . ... ...      . ... ...      . .   . .   . .   . .

  Chorus 1st part              Chorus 2nd part
e|----------------------------|------------------------|
B|----------------------------|------------------------|
G|----------------------------|------------------------|
D|-----------------3-3--3--5/-|-----------------3-3--3-|
A|-2-2-2-2-2-2-2-2-3-3--3--5/-|-2-2-2-2-2-2-2-2-3-3--3-|
E|-0-0-0-0-0-0-0-0-1-1--1--3/-|-0-0-0-0-0-0-0-0-1-1--1-|
   . . . . . . . .              . . . . . . . .

  Interlude 1st part             Interlude 2nd part
e|------------------------------|---------------------------------|
B|------------------------------|---------------------------------|
G|------------------------------|---------------------------------|
D|-5--5-5-5--5-5-5--5-5---------|-5--5-5-5--5-5-5--5-5---------7=-|
A|-5--5-5-5--5-5-5--5-5-6-5-----|-5--5-5-5--5-5-5--5-5-6-5-----7=-|
E|-3--3-3-3--3-3-3--3-3-----6-5-|-3--3-3-3--3-3-3--3-3-----6-5-5=-|

  Chorus 1st part              Chorus 3rd part
e|----------------------------|----------------------------|
B|----------------------------|----------------------------|
G|----------------------------|----------------------------|
D|-----------------3-3--3--5/-|-----------------3-3--3--5=-|
A|-2-2-2-2-2-2-2-2-3-3--3--5/-|-2-2-2-2-2-2-2-2-3-3--3--5=-|
E|-0-0-0-0-0-0-0-0-1-1--1--3/-|-0-0-0-0-0-0-0-0-1-1--1--3=-|
   . . . . . . . .              . . . . . . . .


SONGSTRUCTURE:
Riff 1: 1x -----|Repeat this
Riff 2: 1x -----|sequence 3x
Riff 3: 1x
Riff 4: 1x
Chorus 1st part: 3x
Chorus 2nd part: 1x
Interlude 1st part: 3x
Interlude 2nd part: 1x
Riff 1: 1x -----|Repeat this
Riff 2: 1x -----|sequence 3x
Riff 3: 1x
Riff 4: 1x
Chorus 1st part: 3x
Chorus 3rd part: 1x


I love this song, it's me favourite of the album.
Comments, sugestions, corrections are welcome. If you wanna tell about the
tab, send me an email with the subject "Total Aggressor".
            
Hard to play? Try these video lessons and learn fast. | Correct




comments powered by Disqus
↑ Back to top | Tablatures and chords are parodies/interpretations of the original songs. You may use it for private study, scholarship, research or language learning purposes only