» » »

Dunno Tabs (ver.1)

Artists:  A B C D E F G H I J K L M N O P Q R S T U V W X Y Z # 

Dunno Tabs (ver.1)

Messiah
Rating:
0/5 (0 votes)

Hard to play? Try these video lessons and learn fast.
                d|------------------------------------------|
A|-----------------------(X2)---------------|
F|------------------------------------------|
C|------------------------------------------|
G|------2---1---0---1-2-1-0--------2---1---0|
D|0-2-3---3---3---3----------0-2-3---3---3--|

d|------------------------------------------|
A|---------------------(X2)-----------------|
F|------------------------------------------|
C|------5---4---3---3-4-3-2--------5---4---3|
G|2-4-5-3---2---1---1-2-1-0--2-4-5-3---2---1|
D|0-2-3---0---0---0----------0-2-3---0---0--|

d|------------------------------------------|
A|---------------------(X2)-----------------|
F|------------------------------------------|
C|------5---4---3------------------5---4---3|
G|2-4-5-3---2---1---3-4-3-2--2-4-5-3---2---1|
D|0-2-3---0---0---0-1-2-1-0--0-2-3---0---0--|
  m m m   m   m   m m m m    m m m   m   m

d|--------------------------------------------------------------|
A|--------------------------------------------------------------|
F|--------------------------------------------------------------|
C|--------------------------------------------------------------|
G|2-2-6-5---2-2-2-2-3-4-3-2---2-2-6-5---2-2-4-5-4---3-4---------|
D|0-0-4-3---0-0-0-0-1-2-1-0---0-0-4-3---0-0-2-3-2-0-1-2-3b------|
  m m       m m m m           m m       m m m m m m m m h  
            
Hard to play? Try these video lessons and learn fast. | Correct




comments powered by Disqus
↑ Back to top | Tablatures and chords are parodies/interpretations of the original songs. You may use it for private study, scholarship, research or language learning purposes only