» » »

Meshuggah, Terminal Illusions Tabs (ver.1)

Artists:  A B C D E F G H I J K L M N O P Q R S T U V W X Y Z # 

Terminal Illusions Tabs (ver.1)

Meshuggah Tabs
 Rating:
4/5 (4 votes)
Terminal Illusions lessons Tabs too difficult? Try these video lessons and learn fast
                Terminal Illusions 

|--------------------------------| 
|--------------------------------| 
|2-----3-3-3-3-3-3-3-3-3-3-3-3-3-| 
|1-----2-2-2-2-2-2-2-2-2-2-2-2-23| 
|0-----1-1-1-1-1-1-1-1-1-1-1-1-13| 
|-------------------------------1_ 
|------p-p-p-p-p-p-p-p-p-p-p-p-p-| 

riff 2 0.44 
|---------x3---------------------|--------------------------------| 
|--------------------------------|--------------------------------| 
|--------------------------------|--------------------------------| 
|3-4-4-4-4-4-4-4-4-4-4-4-4-4-4-43|3-4-4-4-4-4-4-4-4-4-4-4-4-4-4-44| 
|3-2-2-2-2-2-2-2-2-2-2-2-2-2-2-23|3-2-2-2-2-2-2-2-2-2-2-2-2-2-2-22| 
|1------------------------------1_1-------------------------------| 
|--p-p-p-p-p-p-p-p-p-p-p-p-p-p-p-|--p-p-p-p-p-p-p-p-p-p-p-p-p-p-pp| 

|----------------| 
|----------------| 
|2---3-3-3-3-3-3-| 
|1---2-2-2-2-2-23| 
|0---1-1-1-1-1-13| 
|---------------1_ 
|----p-p-p-p-p-p-| 

I don't need... 

Who is humane... 
|----------------| 
|----------------| 
|----------------| 
|2-2-------------| 
|1-1-4-5-4-5-4-44| 
|----2-3-2-3-2-22| 
|----p-p-p-p-p-pp| 

No God!! 
|--------------------| 
|--------------------| 
|--------------------| 
|4------4-----4-----3| 
|3------3-----3-----3| 
|--00-0----00-------1_ 
|--pp-p----pp-'------| 

I see your blindness... 
|---------x3---------------------|--------------------------------| 
|--------------------------------|--------------------------------| 
|--------------------------------|--------------------------------| 
|3-4-4-4-4-4-4-4-4-4-4-4-4-4-4-43|3-4-4-4-4-4-4-4-4-4-4-4-4-4-4-42| 
|3-2-2-2-2-2-2-2-2-2-2-2-2-2-2-23|3-2-2-2-2-2-2-2-2-2-2-2-2-2-2-22| 
|1------------------------------1_1------------------------------0_ 
|--p-p-p-p-p-p-p-p-p-p-p-p-p-p-p-|--p-p-p-p-p-p-p-p-p-p-p-p-p-p-p-| 

first solo 
|--------------------------------|--------------------------------|--------------------------------|--------------------------------| 
|--------------------------------|--------------------------------|--------------------------------|--------------------------------| 
|--------------------------------|--------------------------------|--------------------------------|--------------------------------| 
|2-3-3-3-3-3-3-3-3-3-3-3-3-3-3-3-|3-3-3-3-3-3-3-3-3-3-3-3-3-3-3-32|2-3-3-3-3-3-3-3-3-3-3-3-3-3-3-3-|3-3-3-3-3-3-3-3-3-3-3-3-33-3-33-| 
|2-1-1-1-1-1-1-1-1-1-1-1-1-1-1-1-|1-1-1-1-1-1-1-1-1-1-1-1-1-1-1-12|2-1-1-1-1-1-1-1-1-1-1-1-1-1-1-1-|1-1-1-1-1-1-1-1-1-1-1-1-11-1-11-| 
|0-------------------------------|-------------------------------0_0-------------------------------|--------------------------------| 
|--p-p-p-p-p-p-p-p-p-p-p-p-p-p-p-|p-p-p-p-p-p-p-p-p-p-p-p-p-p-p-p-|--p-p-p-p-p-p-p-p-p-p-p-p-p-p-p-|p-p-p-p-p-p-p-p-p-p-p-p-pp-p-pp-| 

God!! 
|---------------------------------------------------------------------| 
|---------------------------------------------------------------------| 
|---------------------------------------------------------------------| 
|4------4----4------4----4------4----3------3----3------3----3------3-| 
|3------3----3------3----3------3----2------2----2------2----2------2-| 
|--00-0---00---00-0---00---00-0---00---00-0---00---00-0---00---00-0--0| 
|--pp-p---pp---pp-p---pp---pp-p---pp---pp-p---pp---pp-p---pp---pp-p--p| 

second solo 
|---------------------------------------------------------------------| 
|---------------------------------------------------------------------| 
|---------------------------------------------------------------------| 
|4------4----4------4----4------4----3------3----3------3----3------3-| 
|4------4----4------4----4------4----3------3----3------3----3------3-| 
|--22-2---22---22-2---22---22-2---21---11-1---11---11-1---11---11-1--1| 
|--pp-p---pp---pp-p---pp---pp-p---pp---pp-p---pp---pp-p---pp---pp-p--p| 

Wake from the grip... 
|-----x4---------| 
|----------------| 
|3------3----3---| 
|2------2----2---| 
|1------1----1---| 
|--0000---00---00| 
|--pppp---pp---pp| 

God owns... 
|-----x4---------| 
|----------------| 
|3------3----3---| 
|2------2----2---| 
|1------1----1---| 
|--00000--00---00| 
|--ppppp--pp---pp|
            
Submit corrections

comments powered by Disqus
↑ Back to top | Meshuggah Tabs for Terminal Illusions. Lyrics for acoustic guitar and electric guitar. Tablatures and chords are parodies/interpretations of the original songs. You may use it for private study, scholarship, research or language learning purposes only