» » »

Meshuggah, Sickening Tabs (ver.1)

Artists:  A B C D E F G H I J K L M N O P Q R S T U V W X Y Z # 

Sickening Tabs (ver.1)

Meshuggah Tabs
 Rating:
4/5 (4 votes)
Sickening lessons Tabs too difficult? Try these video lessons and learn fast
                Artist- Meshuggah
Song- Sickening

this isnt all of it but its a start, and yes I realize that Meshuggah uses 8 string guitars.

Drop d tuning

Intro 1 (fade in volume with each part)
E|----------------------------------------------------------------------------------------------------
B|----------------------------------------------------------------------------------------------------
G|----------------------------------------------------------------------------------------------------
D|2-2-3------2-2-3------2-2-3------2-2-3------2-2-3---------------------------------------------------
A|2-2-3-x2---2-2-3-x3---2-2-3-x2---2-2-3-x5---2-2-3-x16-----------------------------------------------
D|2-2-3------2-2-3------2-2-3------2-2-3------2-2-3---------------------------------------------------
pm . .        . .        . .        . .        . .

Intro 2/verse/chorus
 E|----------------------------------------------------------------------------------------------------
B|----------------------------------------------------------------------------------------------------
G|----------------------------------------------------------------------------------------------------
D|2-2-3-2-2-3--2--2--2--2-2-3-2-2-3--2--2--2--2--2-2-3-2-2-3--2--2--2--2-2-3-2-2-3--2--2--2--2--------
A|2-2-3-2-2-3--2--2--2--2-2-3-2-2-3--2--2--2--2--2-2-3-2-2-3--2--2--2--2-2-3-2-2-3--2--2--2--2--------
D|2-2-3-2-2-3--2--2--2--2-2-3-2-2-3--2--2--2--2--2-2-3-2-2-3--2--2--2--2-2-3-2-2-3--2--2--2--2--------
pm . .   . .             . .   . .                . .   . .             . .   . .
            
Submit corrections

comments powered by Disqus
↑ Back to top | Meshuggah Tabs for Sickening. Lyrics for acoustic guitar and electric guitar. Tablatures and chords are parodies/interpretations of the original songs. You may use it for private study, scholarship, research or language learning purposes only