» » »

Meshuggah, Paralyzing Ignorance Tabs (ver.1)

Artists:  A B C D E F G H I J K L M N O P Q R S T U V W X Y Z # 

Paralyzing Ignorance Tabs (ver.1)

Meshuggah Tabs
Rating:
0/5 (0 votes)
Paralyzing Ignorance lessons Tabs too difficult? Try these video lessons and learn fast
                TUNE DOWN HALF A STEP

naay feedback sa gitara (19 seconds man tingali)
Importante ang palm mute sa E na String...
RIFF A

G--2----------------------------------------------------11-----------------------10-----|
D--2------5-4-------2--------2-2-4-----5-------5----11---------2------------10----------|
A--0------5-4-------2--------2-2-4-----5-------5-----9---------2--------------8---------|
E----------3-2-------0--------0-0-2-----3-------3---------------0--------00-------------|

RIFF B

D-3--3----3-3-3----3----3-3---|
A-3--3----3-3-3----3----3-3---|
E-1--1----1-1-1----1----1-1---|

RIFF C

D-2------2-------2----2-2-2--2---------|
A-2------2-------2----2-2-2--2---------|
E-0----0-0----0-0----0-0-0--0----00----|

RIFF D

D-3------3-------3-----3-3-3----3--------3----|
A-3------3-------3-----3-3-3----3--------3----|
E-1----1-1----1-1-----1-1-1----1----11-1—1----|

RIFF E

D-2------2----2--2--2----2----------|
A-2------2----2--2--2----2----------|
E-0----0-0----0--0--0----0----00----|

RIFF F

D-2---------4--|
A-2---------4--|
E-0----0----2--|

RIFF G

D-4---4--------------|
A-4---4--------------|
E-2---2-----1210-----|

RIFF H

D-4----4----4-|
A-4----4----4-|
E-2----2----2-|

RIFF I

G--------------3------3-------4----|
D--------------3------3-------4----|
A-00000000 1-000-1-000-2-----------|
E----------------------------------|

RIFF J

D-5-4-------4-3-------4-6-7-6-------6-7—7\6—7\6--------|
A-5-4-------4-3-------4-6-7-6-------6-7—7\6—7\6--------|
E-3-2--00--2-1--00--2-4-5-4--00--4-5—5\4—5\4--00-------|

RIFF K

D-2-2----2-2----2-2-----3-4-5----2-2----2-2-----345---|
A-2-2----2-2----2-2-----3-4-5----2-2----2-2-----345---|
E-0-0----0-0----0-0-----1-2-3----0-0----0-0-----123---|

RIFF L

D-4-----------------4-3-2----------------7-6-4-----------------4-3-2------------------|
A-4-----------------4-3-2----------------7-6-4-----------------4-3-2------------------|
E-2—22222222--2-1-0--00000000--5-4-2--22222222---2-1-0—00000000-----------------------|

RIFF M

D-4--6----4--4-6----4--4-6----2----2-2-2----2-2----2-2-2-2---|
A-4--6----4--4-6----4--4-6----2----2-2-2----2-2----2-2-2-2---|
E-2--4----2--2-4----2--2-4----0----0-0-0----0-0----0-0-0-0---|

RIFF N

E------3-----------------------------|
B----------3-------------------------|
G----------------4-------------------|
D---------------------------------5--|
A----------------------------5-------|
E-3-------------------3--------------|

RIFF O

G----------------6-5-----------------|
D----------------6-5----------5-6----|
A----------------4-3----------5-6----|
E--00--00--00--------00--0-3-4-------|

RIFF P

D-4-3-3-2--------2-3---3-4---3-4----2-5-4-3----------7-5----------------5--6-------------|
A-4-3-3-2--------2-3---3-4---3-4----2-5-4-3----------7-5----------------5--6---44--44----|
E-2-1-1-0--000--0-1---1-2---1-2----0-3-2-1--0000--5-3--00000000--3--4---00--00-----------|

D-4-4----7-7----4-4-----------|
A-4-4----7-7----4-4-----------|
E-2-2----5-5----2-2--0000-----|

RIFF Q

D-2---------------2---------------2---------------2-------6-5---2----------------2--|
A-2---------------2---------------2---------------2-------6-5---2----------------2--|
E-0--00000000-0--00000000-0--00000000-0--00--4-3---0--00000000--0--00000000---------|

D-4-4----7-7----4-4-----------|
A-4-4----7-7----4-4-----------|
E-2-2----5-5----2-2--0000-----|

RIFF R

D-2-2---4----2-2---------4---------5-----|
A-2-2--------2-2----4---------5----------|
E-0-0--------0-0-------------------------|

RIFF S

D-4--4----4----4-4----4----4---|
A-4--4----4----4-4----4----4---|
E-2--2----2----2-2----2----2---|

For Riff T, just keep picking and palm muting the low E string.

RIFF U

D--2----2----2----2---|
A--2----2----2----2---|
E--0----0----0----0---|

RIFF V

D------------2---|
A------------2---|
E-000000--0------|

_END_
            

comments powered by Disqus
↑ Back to top | Meshuggah Tabs for Paralyzing Ignorance. Lyrics for acoustic guitar and electric guitar. Tablatures and chords are parodies/interpretations of the original songs. You may use it for private study, scholarship, research or language learning purposes only