>
 >
Obzen

Obzen Guitar Tabs

Meshuggah - Obzen chords, tabs, tablatures, lyrics

Guitar lessons | Add/correct | Request | Top 50 tabs Artists:  A B C D E F G H I J K L M N O P Q R S T U V W X Y Z 0-9

Obzen Guitar Tabs – Meshuggah

CD, Sheet music, Poster

Do you like Obzen? Share with your friends now
Tabs

OBZEN
As recorded by Meshuggah
(From the 2008 Album OBZEN)

	

Words by Kidman Music by Haake, Hagström

Gtr I (F Bb Eb Ab Db F Bb) - 'Untitled'
Gtr II (F Bb Eb Ab Db F Bb) - 'Untitled'
Gtr III (F Bb Eb Ab Db F Bb) - 'Untitled'
Gtr IV (Bb Eb Ab Db F Bb Eb) - 'Untitled'

   Intro
    Q=170
    N.C.
   4/4
    Gtrs I, II
    PM-------------------------------------------------
    S S E +E  E +E  E S S E   S S E S S E +E  E +E  E
||--------------------------|-------------------------|
||--------------------------|-------------------------|
||o-------------------------|-------------------------|
||--------------------------|-------------------------|
||o-------------------------|-------------------------|
||--------------------------|-------------------------|
||--4-4-4-(4)-4-(4)-4-4-4-4-|-4-4-4-4-4-4-(4)-4-(4)-4-|


                            5/4
 --------------------------------------------------------|
  S S E +E  E +E  E S S E    S S E S S E +E  E +E  E +E  E   3x
|-------------------------||---------------------------------||
|-------------------------||---------------------------------||
|-------------------------||--------------------------------o||
|-------------------------||---------------------------------||
|-------------------------||--------------------------------o||
|-------------------------||---------------------------------||
|-4-4-4-(4)-4-(4)-4-4-4-4-||-4-4-4-4-4-4-(4)-4-(4)-4-(4)-4---||


 4/4
  PM--------------------------------------------------
  S S E +E  E +E  E S S E   S S E S S E +E  E +E  E
|-------------------------|-------------------------||
|-------------------------|-------------------------||
|-------------------------|-------------------------||
|-------------------------|-------------------------||
|-------------------------|-------------------------||
|-------------------------|-------------------------||
|-4-4-4-(4)-4-(4)-4-4-4-4-|-4-4-4-4-4-4-(4)-4-(4)-4-||
|
| Gtr III
| W                         W
|-------------------------|-------------------------||
|-------------------------|-------------------------||
|-------------------------|-------------------------||
|-------------------------|-------------------------||
|-------------------------|-------------------------||
|-------------------------|-------------------------||
|-------------------------|-------------------------||


 5/4
 ---------------------------------|
  S  S E +E  E +E  E  S S  E  S S  E
|-------------------------------------|
|-------------------------------------|
|-------------------------------------|
|-------------------------------------|
|-------------------------------------|
|-------------------------------------|
|-4--4-4-(4)-4-(4)-4--4-4--4--4-4--4--|
|
| H.                  E    E  E    E
|-------------------------------------|
|-------------------------------------|
|-------------------------------------|
|--------------------13---13-16---16--|
|--------------------13---13-14---14--|
|-------------------------------------|
|-------------------------------------|


 4/4
   PM------------------------------------------------------------
   S S  E +E   E +E   E  S S  E    S S  E  S S  E +E   E +E   E
|-------------------------------|-------------------------------|
|-------------------------------|-------------------------------|
|-------------------------------|-------------------------------|
|-------------------------------|-------------------------------|
|-------------------------------|-------------------------------|
|-------------------------------|-------------------------------|
|--4-4--4-(4)--4-(4)--4--4-4--4-|--4-4--4--4-4--4-(4)--4-(4)--4-|
|
|  E    E  E   E  E   E  E    E    E    E  E    E  E   E  E   E
|-------------------------------|-------------------------------|
|-------------------------------|-------------------------------|
|-------------------------------|-------------------------------|
|-19---19-19--19-19--19-19---19-|-19---19-19---19-19--19-16--16-|
|-17---17-17--17-17--17-17---17-|-17---17-17---17-17--17-14--14-|
|-------------------------------|-------------------------------|
|-------------------------------|-------------------------------|


                                  5/4
 --------------------------------------------------------------------|
   S S  E +E   E +E   E  S S  E     S S  E  S S  E +E   E +E   E +E   E
|-------------------------------||----------------------------------------|
|-------------------------------||----------------------------------------|
|-------------------------------||----------------------------------------|
|-------------------------------||----------------------------------------|
|-------------------------------||----------------------------------------|
|-------------------------------||----------------------------------------|
|--4-4--4-(4)--4-(4)--4--4-4--4-||--4-4--4--4-4--4-(4)--4-(4)--4-(4)--4---|
|
|  E    E  E   E  E   E  E    E     E    E  E    E  E   E  E   E  E   E
|-------------------------------||----------------------------------------|
|-------------------------------||----------------------------------------|
|-------------------------------||----------------------------------------|
|-13---13-13--13-13--13-13---13-||-13---13-13---13-13--13-16--16-19--19---|
|-13---13-13--13-13--13-13---13-||-13---13-13---13-13--13-14--14-17--17---|
|-------------------------------||----------------------------------------|
|-------------------------------||----------------------------------------|


 4/4
   PM------------------------------------------------------------
   S S  E +E   E +E   E  S S  E    S S  E  S S  E +E   E +E   E
|-------------------------------|-------------------------------|
|-------------------------------|-------------------------------|
|-------------------------------|-------------------------------|
|-------------------------------|-------------------------------|
|-------------------------------|-------------------------------|
|-------------------------------|-------------------------------|
|--4-4--4-(4)--4-(4)--4--4-4--4-|--4-4--4--4-4--4-(4)--4-(4)--4-|
|
|  E    E  E   E  E   E  E    E    E    E  E    E  E   E  E   E
|-------------------------------|-------------------------------|
|-------------------------------|-------------------------------|
|-------------------------------|-------------------------------|
|-19---19-19--19-19--19-19---19-|-19---19-19---19-16--16-13--13-|
|-17---17-17--17-17--17-17---17-|-17---17-17---17-14--14-13--13-|
|-------------------------------|-------------------------------|
|-------------------------------|-------------------------------|


                                  5/4
 --------------------------------------------------------------------|
   S S  E +E   E +E   E  S S  E     S S  E  S S  E +E   E +E   E +E   E
|-------------------------------||----------------------------------------|
|-------------------------------||----------------------------------------|
|-------------------------------||----------------------------------------|
|-------------------------------||----------------------------------------|
|-------------------------------||----------------------------------------|
|-------------------------------||----------------------------------------|
|--4-4--4-(4)--4-(4)--4--4-4--4-||--4-4--4--4-4--4-(4)--4-(4)--4-(4)--4---|
|
|  E    E  E   E  E   E  E    E     E    E  E    E  E   E  E   E  E   E
|-------------------------------||----------------------------------------|
|-------------------------------||----------------------------------------|
|-------------------------------||----------------------------------------|
|-13---13-13--13-13--13-13---13-||-13---13-13---13-16--16-19--19-19--19---|
|-13---13-13--13-13--13-13---13-||-13---13-13---13-14--14-17--17-17--17---|
|-------------------------------||----------------------------------------|
|-------------------------------||----------------------------------------|


 4/4
   PM------------------------------------------------------------
   S S  E +E   E +E   E  S S  E    S S  E  S S  E +E   E +E   E
|-------------------------------|-------------------------------|
|-------------------------------|-------------------------------|
|-------------------------------|-------------------------------|
|-------------------------------|-------------------------------|
|-------------------------------|-------------------------------|
|-------------------------------|-------------------------------|
|--4-4--4-(4)--4-(4)--4--4-4--4-|--4-4--4--4-4--4-(4)--4-(4)--4-|
|
|  E    E  E   E  E   E  E    E    E    E  E    E  E   E  E   E
|-------------------------------|-------------------------------|
|-------------------------------|-------------------------------|
|-------------------------------|-------------------------------|
|-19---19-19--19-19--19-19---19-|-19---19-16---16-13--13-13--13-|
|-17---17-17--17-17--17-17---17-|-17---17-14---14-13--13-13--13-|
|-------------------------------|-------------------------------|
|-------------------------------|-------------------------------|


                                  5/4
 --------------------------------------------------------------------|
   S S  E +E   E +E   E  S S  E     S S  E  S S  E +E   E +E   E +E   E
|-------------------------------||----------------------------------------|
|-------------------------------||----------------------------------------|
|-------------------------------||----------------------------------------|
|-------------------------------||----------------------------------------|
|-------------------------------||----------------------------------------|
|-------------------------------||----------------------------------------|
|--4-4--4-(4)--4-(4)--4--4-4--4-||--4-4--4--4-4--4-(4)--4-(4)--4-(4)--4---|
|
|  E    E  E   E  E   E  E    E     E    E  E    E  E   E  E   E  E   E
|-------------------------------||----------------------------------------|
|-------------------------------||----------------------------------------|
|-------------------------------||----------------------------------------|
|-13---13-13--13-13--13-13---13-||-13---13-16---16-19--19-19--19-19--19---|
|-13---13-13--13-13--13-13---13-||-13---13-14---14-17--17-17--17-17--17---|
|-------------------------------||----------------------------------------|
|-------------------------------||----------------------------------------|


 4/4
   PM-------------------------------------------------------------
   S S  E +E   E +E   E  S S  E    S S  E  S S  E +E   E +E   E
|-------------------------------|-------------------------------||
|-------------------------------|-------------------------------||
|-------------------------------|-------------------------------||
|-------------------------------|-------------------------------||
|-------------------------------|-------------------------------||
|-------------------------------|-------------------------------||
|--4-4--4-(4)--4-(4)--4--4-4--4-|--4-4--4--4-4--4-(4)--4-(4)--4-||
|
|  E    E  E   E  E   E  E    E    E    E  E    E  E   E  E   E
|-------------------------------|-------------------------------||
|-------------------------------|-------------------------------||
|-------------------------------|-------------------------------||
|-19---19-19--19-19--19-19---19-|-16---16-13---13-13--13-13--13-||
|-17---17-17--17-17--17-17---17-|-14---14-13---13-13--13-13--13-||
|-------------------------------|-------------------------------||
|-------------------------------|-------------------------------||


 5/4
 ------------------------------------|
   S S  E +E   E +E   E  S S  E  S S  E
|----------------------------------------||
|----------------------------------------||
|----------------------------------------||
|----------------------------------------||
|----------------------------------------||
|----------------------------------------||
|--4-4--4-(4)--4-(4)--4--4-4--4--4-4--4--||
|
|  E    E  E   E  E   E  E    E  E    E
|----------------------------------------||
|----------------------------------------||
|----------------------------------------||
|-13---13-13--13-13--13-13---13-13---13--||
|-13---13-13--13-13--13-13---13-13---13--||
|----------------------------------------||
|----------------------------------------||


 A sea of perfection...
  N.C.
 4/4
  PM----|   PM--------------------|   PM----|   PM-
  S S S S E E +Q   Q    +E  S S S S E S S S S E E
|---------------------|---------------------------|
|---------------------|---------------------------|
|---------------------|---------------------------|
|---------------------|---------------------------|
|---------3-----------|-------------3---------3---|
|---------------------|---------------------------|
|-1-1-1-1---0-(0)--0--|-(0)-1-1-1-1---1-1-1-1---0-|


 --------------|   PM--------------------|   PM|
  Q  +E  S S S S E Q    +E  E +Q   S S S S E S S
|---------------------|-----------------------------|
|---------------------|-----------------------------|
|---------------------|-----------------------------|
|---------------------|-----------------------------|
|----------------3----|--------------------3--------|
|---------------------|-----------------------------|
|-0--(0)-1-1-1-1---0--|-(0)-0-(0)--1-1-1-1---1-1----|


  PM|   PM----------------------|   PM--------
  S S E E E +Q   Q    +E  S S S S E Q  +E  E
|-------------------|------------------------|
|-------------------|------------------------|
|-------------------|------------------------|
|-------------------|------------------------|
|-----3-------------|-------------3----------|
|-------------------|------------------------|
|-1-1---0-0-(0)--0--|-(0)-1-1-1-1---0--(0)-0-|


 ------------|   PM----|     PM-------------|   PM
  +Q   S S S S E S S S S E   E E +Q   S S S S E E
|--------------------------|----------------------|
|--------------------------|----------------------|
|--------------------------|----------------------|
|--------------------------|----------------------|
|--------------3---------3-|------------------3---|
|--------------------------|----------------------|
|-(0)--1-1-1-1---1-1-1-1---|-0-0-(0)--1-1-1-1---0-|


   PM---------------|     PM----|   PM----------
  +Q   Q  +E  S S S S E   S S S S E E Q  +E  E
|-----------------------|----------------------|
|-----------------------|----------------------|
|-----------------------|----------------------|
|-----------------------|----------------------|
|---------------------3-|---------3------------|
|-----------------------|----------------------|
|-(0)--0--(0)-1-1-1-1---|-1-1-1-1---0-0--(0)-0-|


 ------------|   PM----------------------|   PM----|
  +Q   S S S S E E +Q      Q   +E  S S S S E S S S S
|-----------------------|------------------------------|
|-----------------------|------------------------------|
|-----------------------|------------------------------|
|-----------------------|------------------------------|
|--------------3--------|------------------3-----------|
|-----------------------|-(1)--(1)---------------------|
|-(0)--1-1-1-1---0-(0)--|--0---(0)-1-1-1-1---1-1-1-1---|


    PM-------------|     PM------------------|
  E E Q  +E  S S S S E   Q  +E  E +Q   S S S S
|----------------------|-----------------------|
|----------------------|-----------------------|
|----------------------|-----------------------|
|----------------------|-----------------------|
|-3------------------3-|-----------------------|
|----------------------|-----------------------|
|---0-0--(0)-1-1-1-1---|-0--(0)-0-(0)--1-1-1-1-|


    PM----|   PM----------------------|   PM
  E S S S S E E E +Q     Q  +E  S S S S E Q
|----------------------|----------------------||
|----------------------|----------------------||
|----------------------|----------------------||
|----------------------|----------------------||
|-3---------3----------|----------------3-----||
|----------------------|----------------------||
|---1-1-1-1---0-0-(0)--|-0--(0)-1-1-1-1---0---||


 A new belief system...
  N.C.
  PM--|          PM----------------|     PM---------
  S S E Q    +E  E +E  E   +E  S S E E E E +E  S S
|------------------------|-------------------------|
|------------------------|-------------------------|
|------------------------|-------------------------|
|------------------------|-------------------------|
|------------------------|-------------------------|
|------------------------|-----------7-6-----------|
|-0-0-0-6b7--(6)-0-(0)-0-|-(0)-0-0-0-----0-(0)-0-0-|


 -|                     PM----|     PM--|
  E E   +E  +E  Q  Q    S S E E E E S S E E
|---------------------|------------------------|
|---------------------|------------------------|
|---------------------|------------------------|
|---------------------|------------------------|
|---------------------|------------------------|
|---------------------|---------8-7------------|
|-0-3b4-(3)-(3)-1--1--|-0-0-0-0-----0-0-0-6b7--|


          PM--------|       PM-----|
  +E  +E  Q  Q  S S E   E E Q  S S E Q
|---------------------|-------------------|
|---------------------|-------------------|
|---------------------|-------------------|
|---------------------|-------------------|
|---------------------|-------------------|
|---------------------|-7-6---------------|
|-(6)-(6)-0--0--0-0-0-|-----0--0-0-0-3b4--|


                  PM----|       PM--|          PM
  +E  E +E  E +E  S S E E   E E S S E Q    +E  E
|-------------------------|----------------------|
|-------------------------|----------------------|
|-------------------------|----------------------|
|-------------------------|----------------------|
|-------------------------|----------------------|
|-------------------------|-8-7------------------|
|-(3)-1-(1)-1-(1)-0-0-0-0-|-----0-0-0-6b7--(6)-0-|


   PM-----------|     PM----------|
  +E  E +E  S S E E E E   +E  S S E E   +E  +E  Q
|-----------------------|--------------------------|
|-----------------------|--------------------------|
|-----------------------|--------------------------|
|-----------------------|--------------------------|
|-----------------------|--------------------------|
|-----------------7-6---|--------------------------|
|-(0)-0-(0)-0-0-0-----0-|-(0)-0-0-0-3b4-(3)-(3)-1--|


     PM----|     PM----|             PM-|
  Q  S S E E E E S S   E E   +E  +E  Q  Q
|--------------------|---------------------|
|--------------------|---------------------|
|--------------------|---------------------|
|--------------------|---------------------|
|--------------------|---------------------|
|------------8-7-----|---------------------|
|-1--0-0-0-0-----0-0-|-0-6b7-(6)-(6)-0--0--|


  PM--|     PM-----|                        PM---
  S S E E E Q  S S E   Q    +E  E +E  E +E  S S
|--------------------|--------------------------|
|--------------------|--------------------------|
|--------------------|--------------------------|
|--------------------|--------------------------|
|--------------------|--------------------------|
|-------7-6----------|--------------------------|
|-0-0-0-----0--0-0-0-|-3b4--(3)-1-(1)-1-(1)-0-0-|


 ---|     PM--|            PM--------------|
  E E E E S S E Q      +E  E +E  E +E  S S E E
|--------------------|--------------------------||
|--------------------|--------------------------||
|--------------------|--------------------------||
|--------------------|--------------------------||
|--------------------|--------------------------||
|-----8-7------------|-----------------------7--||
|-0-0-----0-0-0-6b7--|-(6)-0-(0)-0-(0)-0-0-0----||


 The last harmony...
  N.C.
  Gtr II                      Gtrs I, II
  PM---------------------------------------------------
  S S E +E  E +E  E S S E     S S E +E  E +E  E S S E
|-------------------------||--------------------------|
|-------------------------||--------------------------|
|-------------------------||o-------------------------|
|-------------------------||--------------------------|
|-------------------------||o-------------------------|
|-------------------------||--------------------------|
|-0-0-0-(0)-0-(0)-0-0-0-0-||--0-0-0-(0)-0-(0)-0-0-0-0-|


 -------------------------------------------------|
  S S E S S E +E  E +E  E   S S E +E  E +E  E S S E
|-------------------------|--------------------------|
|-------------------------|--------------------------|
|-------------------------|--------------------------|
|-------------------------|--------------------------|
|-------------------------|--------------------------|
|-------------------------|--------------------------|
|-0-0-0-0-0-0-(0)-0-(0)-0-|-0-0-0-(0)-0-(0)-0-0-0-0--|


 5/4                               4/4
  PM---------------------------------------------------------
  S S E S S E +E  E +E  E +E  E  3x S S E +E  E +E  E S S E
|--------------------------------||-------------------------|
|--------------------------------||-------------------------|
|-------------------------------o||-------------------------|
|--------------------------------||-------------------------|
|-------------------------------o||-------------------------|
|--------------------------------||-------------------------|
|-0-0-0-0-0-0-(0)-0-(0)-0-(0)-0--||-0-0-0-(0)-0-(0)-0-0-0-0-|


                            5/4
 --------------------------------------------------------|
  S S E S S E +E  E +E  E    S S E +E  E +E  E S S E S S E
|-------------------------||--------------------------------||
|-------------------------||--------------------------------||
|-------------------------||--------------------------------||
|-------------------------||--------------------------------||
|-------------------------||--------------------------------||
|-------------------------||--------------------------------||
|-0-0-0-0-0-0-(0)-0-(0)-0-||-0-0-0-(0)-0-(0)-0-0-0-0-0-0-0--||


 A new belief system...
  N.C.
 4/4
  PM----|   PM--------------------|   PM----|
  S S S S E E +Q   Q    +E  S S S S E S S S S E E
|---------------------|---------------------------|
|---------------------|---------------------------|
|---------------------|---------------------------|
|---------------------|---------------------------|
|---------------------|-------------2---------1---|
|---------1-----------|-------------------------2-|
|-0-0-0-0---0-(0)--0--|-(0)-0-0-0-0---0-0-0-0-----|


  PM-----------|                   PM----|   PM|
  Q  +E  S S S S E Q    +E  E +Q   S S S S E S S
|---------------------|-----------------------------|
|---------------------|-----------------------------|
|---------------------|-----------------------------|
|---------------------|-----------------------------|
|---------------------|--------------------3--------|
|---------------------|-----------------------------|
|-0--(0)-0-0-0-0-3-1--|-(1)-1-(1)--0-0-0-0---0-0----|


  PM|   PM----------------------|   PM--------
  S S E E E +Q   Q    +E  S S S S E Q  +E  E
|-------------------|------------------------|
|-------------------|------------------------|
|-------------------|------------------------|
|-------------------|------------------------|
|-----2-------------|------------------------|
|-------------------|-------------1----------|
|-0-0---0-0-(0)--0--|-(0)-0-0-0-0---0--(0)-0-|


 ------------|   PM----|       PM-----------|
  +Q   S S S S E S S S S E   E E +Q   S S S S E E
|--------------------------|----------------------|
|--------------------------|----------------------|
|--------------------------|----------------------|
|--------------------------|----------------------|
|--------------2---------1-|----------------------|
|--------------------------|-2--------------------|
|-(0)--0-0-0-0---0-0-0-0---|---0-(0)--0-0-0-0-3-1-|


              PM----|     PM----|   PM----------
  +Q   Q  +E  S S S S E   S S S S E E Q  +E  E
|-----------------------|----------------------|
|-----------------------|----------------------|
|-----------------------|----------------------|
|-----------------------|----------------------|
|---------------------3-|---------2------------|
|-----------------------|----------------------|
|-(1)--1--(1)-0-0-0-0---|-0-0-0-0---0-0--(0)-0-|


 ------------|   PM--------------------|   PM----|
  +Q   S S S S E E +Q     Q  +E  S S S S E S S S S
|-----------------------|----------------------------|
|-----------------------|----------------------------|
|-----------------------|----------------------------|
|-----------------------|----------------------------|
|-----------------------|----------------2-----------|
|--------------1--------|----------------------------|
|-(0)--0-0-0-0---0-(0)--|-0--(0)-0-0-0-0---0-0-0-0---|


      PM-----------|                   PM----|
  E E Q  +E  S S S S E   Q  +E  E +Q   S S S S
|----------------------|-----------------------|
|----------------------|-----------------------|
|----------------------|-----------------------|
|----------------------|-----------------------|
|-1--------------------|-----------------------|
|---2------------------|-----------------------|
|-----0--(0)-0-0-0-0-3-|-1--(1)-1-(1)--0-0-0-0-|


    PM----|   PM----------------------|   PM
  E S S S S E E E +Q     Q  +E  S S S S E Q
|----------------------|----------------------||
|----------------------|----------------------||
|----------------------|----------------------||
|----------------------|----------------------||
|-3---------2----------|----------------------||
|----------------------|----------------1-----||
|---0-0-0-0---0-0-(0)--|-0--(0)-0-0-0-0---0---||


 Decay, disgrace...
  N.C.
        PM      PM     PM|       PM|
  E E E E E E E E   Q  S S E +E  E E E
|-----------------|--------------------|
|-----------------|--------------------|
|-----------------|--------------------|
|-3---------------|--------------------|
|-------------5---|-1------2-(2)-----1-|
|---2-1---0-1-----|--------------------|
|-------0-------0-|----0-0-------0-0---|


  PM      PM        PM      PM|    PM|
  E E E E E E E E   E E +E  S S Q  E E
|-----------------|----------------------|
|-----------------|----------------------|
|-----------------|----------------------|
|-----------------|----------------------|
|---------------5-|---1-(1)-----2--------|
|---1-2-1---0-1---|----------------------|
|-0-------0-------|-0-------0-0----0-0---|


    PM      PM        PM   PM|       PM-
  E E E E E E E E   E E Q  S S E +E  E
|-----------------|--------------------|
|-----------------|--------------------|
|-----------------|--------------------|
|-----------------|--------------------|
|-1---------------|-5---1------2-(2)---|
|-----1-2-1---0-1-|--------------------|
|---0-------0-----|---0----0-0-------0-|


 -|   PM      PM        PM      PM|
  E E E E E E E E   E E E E +E  S S Q
|-----------------|----------------------|
|-----------------|----------------------|
|-----------------|----------------------|
|-----------------|----------------------|
|---1-------------|---5---1-(1)-----2----|
|-------1-2-1---0-|-1--------------------|
|-0---0-------0---|-----0-------0-0------|


  PM|   PM      PM     PM|       PM|
  E E E E E E E E   Q  S S E +E  E E E
|-----------------|--------------------|
|-----------------|--------------------|
|-----------------|--------------------|
|-----------------|--------------------|
|-----1-------5---|-1------2-(2)-----1-|
|---------0-1-----|--------------------|
|-0-0---0-------0-|----0-0-------0-0---|


  PM      PM        PM      PM|    PM|
  E E E E E E E E   E E +E  S S Q  E E
|-----------------|----------------------|
|-----------------|----------------------|
|-----------------|----------------------|
|-----------------|----------------------|
|---------------5-|---1-(1)-----2--------|
|---1-2-1---0-1---|----------------------|
|-0-------0-------|-0-------0-0----0-0---|


    PM      PM        PM   PM|       PM-
  E E E E E E E E   E E Q  S S E +E  E
|-----------------|--------------------|
|-----------------|--------------------|
|-----------------|--------------------|
|-----------------|--------------------|
|-1---------------|-5---1------2-(2)---|
|-----1-2-1---0-1-|--------------------|
|---0-------0-----|---0----0-0-------0-|


 -|   PM      PM        PM      PM|
  E E E E E E E E   E E E E +E  S S Q
|-----------------|----------------------||
|-----------------|----------------------||
|-----------------|----------------------||
|-----------------|----------------------||
|---1-------------|---5---1-(1)-----2----||
|-------1-2-1---0-|-1--------------------||
|-0---0-------0---|-----0-------0-0------||


 Interlude
  N.C.
  PM----|                                  PM---
  S S E +E  E +Q   Q    +E  E +Q   E E +E  S S
|---------------------|------------------------|
|---------------------|------------------------|
|---------------------|------------------------|
|---------------------|------------------------|
|-----------6-(6)--5--|-(5)-3-(3)--2-----------|
|---------------------|--------------4-(4)-----|
|-0-0-0-(0)-----------|--------------------0-0-|


 -|         PM--------|
  Q  Q  +E  E E S S   Q  Q  +E  E +Q
|-------------------|-------------------|
|-------------------|-------------------|
|-------------------|-------------------|
|-------------------|-------------------|
|-------------------|----9--(9)-8-(8)---|
|-------------------|-------------------|
|-0--4--(4)-0-1-0-0-|-0-----------------|


              PM------|          PM---------
  Q  +E  E Q  S S E   +E  E +Q   E E S S E
|-------------------|----------------------|
|-------------------|----------------------|
|-------------------|----------------------|
|-------------------|----------------------|
|-6--(6)-5----------|----------------------|
|----------7--------|----------------------|
|-------------3-3-3-|-(3)-7-(7)--4-6-3-3-3-|


 ---------------|
  +E  E +Q   Q  +E  E   +Q   E E +E  S S Q
|---------------------|----------------------|
|---------------------|----------------------|
|---------------------|----------------------|
|---------------------|----------------------|
|-------------------6-|-(6)--5-3-(3)-2-2-2---|
|---------------------|----------------------|
|-(3)-1-(1)--0--(0)---|----------------------|


         PM------|              PM|
  Q  +E  E E S S Q    S S E +E  E +Q   Q
|-------------------|---------------------|
|-------------------|---------------------|
|-------------------|---------------------|
|-------------------|---------------------|
|-------------------|------------------9--|
|-4--(4)------------|---------------------|
|--------0-4-0-0-0--|-1h3p1-(1)-0-(0)-----|


                                             PM
  +E  E Q  S S E +E  E   +Q    E E S S E +E  E
|----------------------|-----------------------|
|----------------------|-----------------------|
|----------------------|-----------------------|
|----------------------|-----------------------|
|-(9)-8-6--5-5-5-(5)---|-----------------------|
|--------------------7-|-(7)\------------------|
|----------------------|-------3-7-4p0h4-(4)-6-|


   PM------------------|
  +Q   Q  +E  E +Q     E E +E  S S Q  Q
|--------------------|-------------------|
|--------------------|-------------------|
|--------------------|-------------------|
|--------------------|-------------------|
|--------------------|---6-(6)-5-5-5--3--|
|--------------------|-------------------|
|-(6)--3--(3)-1-(1)--|-0-----------------|


                 PM---------------------|
  +E  E E S S Q  Q    +E  E +Q   Q  +E   E
|-------------------|-------------------------||
|-------------------|-------------------------||
|-------------------|-------------------------||
|-------------------|-------------------------||
|-(3)-2-2-----------|-------------------------||
|---------4-4-4-----|-------------------(2)---||
|----------------0--|-(0)-4-(4)--0--(0)--1----||


 Interlude Part 2
  N.C.
 6/4
      Gtr I
       PM       PM--|   PM|   PM--|
   E   E  +E  E S S E E S S E E S S E
|-------------------------------------||
|-------------------------------------||
|-------------------------------------||
|-------------------------------------||
|-------------------------------------||
|-(2)-(2)-(2)-8-------8-----8-------8-||
|--1---0--(0)---0-0-0---0-0---0-0-0---||


 7/4
  PM|           PM--|   PM|   PM--|   PM|
  S S  E  +E  E S S E E S S E E S S E S S E
|--------------------------------------------||
|--------------------------------------------||
|--------------------------------------------||
|--------------------------------------------||
|--------------------------------------------||
|-----(2)-(2)-8-------8-----8-------8-----8--||
|-0-0--0--(0)---0-0-0---0-0---0-0-0---0-0----||


 6/4
  PM|           PM--|   PM|   PM--|
  S S  E  +E  E S S E E S S E E S S E
|-------------------------------------||
|-------------------------------------||
|-------------------------------------||
|-------------------------------------||
|-------------------------------------||
|-----(2)-(2)-8-------8-----8-------8-||
|-0-0--0--(0)---0-0-0---0-0---0-0-0---||


 7/4                                          6/4
  PM|           PM--|   PM|   PM--|   PM|      PM|           PM--|   PM|   PM--|
  S S  E  +E  E S S E E S S E E S S E S S E    S S  E  +E  E S S E E S S E E S S E
|-------------------------------------------||-------------------------------------|
|-------------------------------------------||-------------------------------------|
|-------------------------------------------||-------------------------------------|
|-------------------------------------------||-------------------------------------|
|-------------------------------------------||-------------------------------------|
|-----(2)-(2)-8-------8-----8-------8-----8-||-----(2)-(2)-8-------8-----8-------8-|
|-0-0--0--(0)---0-0-0---0-0---0-0-0---0-0---||-0-0--0--(0)---0-0-0---0-0---0-0-0---|


    Gtrs I, II
    PM|           PM--|   PM|   PM--|
    S S  E  +E  E S S E E S S E E S S E
||--------------------------------------|
||--------------------------------------|
||o-------------------------------------|
||--------------------------------------|
||o-------------------------------------|
||------(2)-(2)-8-------8-----8-------8-|
||--0-0--0--(0)---0-0-0---0-0---0-0-0---|


                                         4/4
  PM|           PM--|   PM|   PM--|       PM|           PM--|   PM|
  S S  E  +E  E S S E E S S E E S S E  5x S S  E  +E  E S S E E S S
|--------------------------------------||------------------------------|
|--------------------------------------||------------------------------|
|-------------------------------------o||------------------------------|
|--------------------------------------||------------------------------|
|-------------------------------------o||------------------------------|
|-----(2)-(2)-8-------8-----8-------8--||-----(2)-(2)-8-------8--------|
|-0-0--0--(0)---0-0-0---0-0---0-0-0----||-0-0--0--(0)---0-0-0---0-0----|


   The gleam of contempt...
                                          1.,2.,3.,4.
    N.C.
   6/4                                    7/4
    PM|           PM--|   PM|   PM--|      PM|           PM--|   PM|   PM--|   PM|
    S S  E  +E  E S S E E S S E E S S E    S S  E  +E  E S S E E S S E E S S E S S E  4x
||--------------------------------------||--------------------------------------------||
||--------------------------------------||--------------------------------------------||
||o-------------------------------------||-------------------------------------------o||
||--------------------------------------||--------------------------------------------||
||o-------------------------------------||-------------------------------------------o||
||------(2)-(2)-8-------5-----6-------8-||-----(2)-(2)-8-------5-----6-------9-----8--||
||--0-0--0--(0)---0-0-0---0-0---0-0-0---||-0-0--0--(0)---0-0-0---0-0---0-0-0---0-0----||


 5.
 6/4
                PM--|   PM|   PM--|
  S S  E  +E  E S S E E S S E E S S E
|----------------------------------------||
|----------------------------------------||
|----------------------------------------||
|----------------------------------------||
|----------------------------------------||
|-----(2)-(2)-8-------5-----6-------9----||
|-0-0--0--(0)---0-0-0---0-0---0-0-0------||


 Outro
  N.C.
 4/4
   PM----|                                            PM---
   S S E +E   E  +Q    Q     +E   E  +Q    E  E  +E   S S
|-------------------------|-------------------------------|
|-------------------------|-------------------------------|
|-------------------------|-------------------------------|
|-------------------------|-------------------------------|
|-------------6--(6)---5--|--(5)--3--(3)---2--------------|
|-------------------------|-------------------4--(4)------|
|--0-0-0-(0)--------------|---------------------------0-0-|
|
| Gtr IV
|  Q      E   E  +Q    Q     +E   E  +Q    E  E  +E   E
|-14h====15-----------15--|-(15)----------17---------15---|
|-------------------------|-------------------------------|
|------------13-(13)------|------15-(15)-----16-(16)------|
|-------------------------|-------------------------------|
|-------------------------|-------------------------------|
|-------------------------|-------------------------------|
|-------------------------|-------------------------------|


 -|             PM----------|
   Q   Q   +E   E  E  S S    Q   Q   +E   E  +Q
|-------------------------|-------------------------|
|-------------------------|-------------------------|
|-------------------------|-------------------------|
|-------------------------|-------------------------|
|-------------------------|------9---(9)--8--(8)----|
|-------------------------|-------------------------|
|--0---4---(4)--0--1--0-0-|--0----------------------|
|
|  Q   Q   +E   E  E  E      Q   Q   +E   E  +Q
|-----14--(14)----12------|-14-----------15-(15)----|
|-------------------------|-------------------------|
|-15-----------13----13---|-----13--(13)------------|
|-------------------------|-------------------------|
|-------------------------|-------------------------|
|-------------------------|-------------------------|
|-------------------------|-------------------------|


                 PM-------|              PM------------
   Q  +E  E  Q   S S  E    +E   E  +Q    E  E  S S  E
|-----------------------|-----------------------------|
|-----------------------|-----------------------------|
|-----------------------|-----------------------------|
|-----------------------|-----------------------------|
|--6--(6)-5-------------|-----------------------------|
|------------7----------|-----------------------------|
|----------------3-3--3-|--(3)--7--(7)---4--6--3-3--3-|
|
|  Q   Q     Q   E    E    +E   E  +Q    E  E  E    E
|-----15--------18------|------17-(17)-----15------14-|
|-----------------------|-----------------------------|
|-15--------16-------18-|-(18)----------16----15------|
|-----------------------|-----------------------------|
|-----------------------|-----------------------------|
|-----------------------|-----------------------------|
|-----------------------|-----------------------------|


 --------------------|
   +E   E +Q      Q   +E   E    +Q    E  E +E   S S  Q
|----------------------------|---------------------------|
|----------------------------|---------------------------|
|----------------------------|---------------------------|
|----------------------------|---------------------------|
|--------------------------6-|--(6)---5--3-(3)--2-2--2---|
|----------------------------|---------------------------|
|--(3)--1-(1)-----0---(0)----|---------------------------|
|
|  +E   E  E   E  Q   +E   E    +Q    E  E  E   E    Q
|-(14)----15-----12--(12)s14-|-(14)-----15-----15--------|
|----------------------------|-------14----13------------|
|------13-----13-------------|----------------------15---|
|----------------------------|---------------------------|
|----------------------------|---------------------------|
|----------------------------|---------------------------|
|----------------------------|---------------------------|


            PM--------|                 PM|
   Q   +E   E  E  S S  Q     S S E +E   E  +Q        Q
|-------------------------|-----------------------------|
|-------------------------|-----------------------------|
|-------------------------|-----------------------------|
|-------------------------|-----------------------------|
|-------------------------|--------------------------9--|
|--4---(4)----------------|-----------------------------|
|-----------0--4--0-0--0--|--1h3p1-(1)--0--(0)----------|
|
|  Q.       E  E  E    Q     Q.         E  +E   +E   Q
|-17----------15------14--|------------12-(12)-(12)s14--|
|-------------------------|-----------------------------|
|----------16----15-------|-13--------------------------|
|-------------------------|-----------------------------|
|-------------------------|-----------------------------|
|-------------------------|-----------------------------|
|-------------------------|-----------------------------|


                                                             PM
   +E   E  Q     S S E  +E   E   +Q       E  E  S S  E  +E   E
|------------------------------|-------------------------------|
|------------------------------|-------------------------------|
|------------------------------|-------------------------------|
|------------------------------|-------------------------------|
|--(9)--8--6-----5-5-5--(5)----|-------------------------------|
|----------------------------7-|-(7)\--------------------------|
|------------------------------|----------3--7--4p0h=4--(4)--6-|
|
|  +E   E  E  E  Q      +E   E    E    E  E  E  E    E  +E   E
|-(14)-14----15-------------17-|------17----18------17-(17)----|
|------------------------------|-------------------------------|
|---------13----15-----(15)----|-15------16----18-----------16-|
|------------------------------|-------------------------------|
|------------------------------|-------------------------------|
|------------------------------|-------------------------------|
|------------------------------|-------------------------------|


    PM----------------------|                                            PM----
   +Q    Q   +E   E  +Q      E  E +E  S S  Q   Q     +E   E  E  S S  Q   Q
|-------------------------|-----------------------|---------------------------|
|-------------------------|-----------------------|---------------------------|
|-------------------------|-----------------------|---------------------------|
|-------------------------|-----------------------|---------------------------|
|-------------------------|-----6-(6)-5-5--5---3--|--(3)--2--2----------------|
|-------------------------|-----------------------|-------------4-4--4--------|
|--(6)---3---(3)--1--(1)--|--0--------------------|----------------------0----|
|
|  +Q    Q   +E   E  +Q      E  E  E  E    Q   Q     +E   E  E  E    Q   E  E
|-------15--(15)----------|-14----15p12-------14--|-(14)----15------17-----18-|
|-------------------------|-----------------------|---------------------------|
|-(16)-----------15-(15)--|----13---------12------|------13----15-------16----|
|-------------------------|-----------------------|---------------------------|
|-------------------------|-----------------------|---------------------------|
|-------------------------|-----------------------|---------------------------|
|-------------------------|-----------------------|---------------------------|


 -------------------------|
   +E   E +Q    Q     +E   E      E   E   +E  E H
|-----------------------------||---------------------*|
|-----------------------------||---------------------*|
|-----------------------------||---------------------*|
|-----------------------------||---------------------*|
|-----------------------------||---------------------*|
|-------------------------(2)-||-(2)-(2)--(2)--------*|
|--(0)--4-(4)---0-----(0)--1--||--1---0---(0)--------*|
|
|  +E   E  Q    E  E  +E   E      E   E   +E  E H
|-(18)-17-15------17-(17)-14--||-----14--(14)--------*|
|-----------------------------||---------------------*|
|--------------15-------------||-13------------------*|
|-----------------------------||---------------------*|
|-----------------------------||---------------------*|
|-----------------------------||---------------------*|
|-----------------------------||---------------------*|



Duration Legend
---------------
W - whole; H - half; Q - quarter; E - 8th; S - 16th; T - 32nd; X - 64th; a - acciaccatura
+ - note tied to previous; . - note dotted; .. - note double dotted
Uncapitalized letters represent notes that are staccato (1/2 duration)
Irregular groupings are notated above the duration line
Duration letters will always appear directly above the note/fret number it represents the
duration for.  Duration letters with no fret number below them represent rests.  Multi-
bar rests are notated in the form Wxn, where n is the number of bars to rest for.  Low
melody durations appear below the staff

Tablature Legend
----------------
 h   - hammer-on
 p   - pull-off
 b   - bend
 pb  - pre-bend
 r   - bend release (if no number after the r, then release immediately)
 /\  - slide into or out of (from/to "nowhere")
 s   - legato slide
 S   - shift slide
 - natural harmonic
[n]  - artificial harmonic
n(n) - tapped harmonic
 ~   - vibrato
 tr  - trill
 T   - tap
 TP  - trem. picking
 PM  - palm muting
\n/  - tremolo bar dip; n = amount to dip
 \n  - tremolo bar down
 n/  - tremolo bar up
/n\  - tremolo bar inverted dip
 =   - hold bend; also acts as connecting device for hammers/pulls
 <> - volume swell (louder/softer)
 x   - on rhythm slash represents muted slash
 o   - on rhythm slash represents single note slash

Misc Legend
-----------
 |  - bar
||  - double bar
||o - repeat start
o|| - repeat end
*|  - double bar (ending)
 :  - bar (freetime)
 $  - Segno
 &  - Coda
Tempo markers -  = BPM(8/16=s8/s16), where s8 = swing 8ths, s16 = swing 16ths





Comments


Popular Meshuggah tabs & chords
Beneath Bass Tabs
New Millenium Cyanide Christ Bass Tabs
The Exquisite Machinery Of Torture Bass Tabs
Cadaverous Mastication Tabs
Organic Shadows Tabs
Paralyzing Ignorance Tabs
Rational Gaze Tabs
Soul Burn 1 Tabs
Sum Ending Tabs
Unanything Tabs


Song lyrics



↑ Back to top | Tablatures and chords are parodies/interpretations of the original songs. You may use it for private study, scholarship, research or language learning purposes only
© 2014 AZChords.com Contact us | Privacy policy | DMCA | Add/correct tabs | Request tabs | Top 50 tabs