» » »

Neurotica Bass tabs (ver.1)

Artists:  A B C D E F G H I J K L M N O P Q R S T U V W X Y Z # 

Neurotica Bass tabs (ver.1)

Meshuggah
Rating:
0/5 (0 votes)

Hard to play? Try these video lessons and learn fast.
                This is just a guideline for the song of what notes to play
The hardest part about meshuggah is the timing which ur gonna have to work out for urself

the tuning goes

|D#
|A#
|F
|A#

Intro
|-------------------------------------------------------------------|
|-------------------------------------------------------------------|
|-------------------------------------------------------------------|
|-6---x-x--x-x--x-6---x-x--x-x--0-6---x-x--x-x--x-6---x-x--x-x--x-x-|

Heavy intro
|---------------------------------------------------------------------------------|
|---------------------------------------------------------------------------------|
|-2-----------------------2------2------------------------2-------2---------------|
|---3--x-x--x-0-6--3--x-x---3--x---3--x-x--x-0-6--3--x-0----3--0----3--x-x-x--x-x-|

Verse
|------------------------------------------------------|
|------------------------------------------------------|
|------------------------------------------------------|
|-4^-3^-x-x-2^-x-x-4^-3^-2^-x-x-2^-x-x-4^-3^-x-x-2^-x-x|

Chorus
|------------------------------------------------------------------------|
|------------------------------------------------------------------------|
|------------------------------------------------------------------------|
|-4^-5^-x-4^-5^-7^-x-x--x-x-x--4^-5^-x-4^-5^-7^-8^-x-x--x-x-x--4^-5^-x-x-|

Weird post chorus riff
|----------------------------------------------------------------|
|----------------------------------------------------------------|
|----------------------------------------------------------------|
|-1--1-2--1-1-2--1--1-1--2--1-1-2--1--1-2--1-1-2--1--1-1--2--1-1-|

During solo riff
|---------------------------|
|---------------------------|
|---------------------------|
|2-1-1-1-2-1--1--1-1-1--1-1-|

At the end go  |-4^-3^-| 
then just play open for a while
            
Hard to play? Try these video lessons and learn fast. | Correct




comments powered by Disqus
↑ Back to top | Tablatures and chords are parodies/interpretations of the original songs. You may use it for private study, scholarship, research or language learning purposes only