>
 >
Future Breed Machine

Future Breed Machine Guitar Tabs

Meshuggah - Future Breed Machine chords, tabs, tablatures, lyrics

Guitar lessons | Add/correct | Request | Top 50 tabs Artists:  A B C D E F G H I J K L M N O P Q R S T U V W X Y Z 0-9

Future Breed Machine Guitar Tabs – Meshuggah

CD, Sheet music, Poster

Do you like Future Breed Machine? Share with your friends now
Bass TabsTabs

Rhythm & Lead Guitar Transcription
Tuning (Low - High): Bb Eb Ab Db Gb Bb


Intro (Over Machine Sound Effects)      - Guitar 3
|-----18-----18-----18-----18-----18--|
|-----21-----21-----21-----21-----21--|
|-------------------------------------|
|-------------------------------------|
|-------------------------------------|
|-------------------------------------|


A   (1)           (2,3,4,5,6,7,8)        - Guitar 1 & 2
|---------|-----------------------------|
|---------|-----------------------------|
|---------|-----------------------------|
|---------|-----------------------------|
|---------|-----------------------------|
|-0-0-0---|-0-0-0--0-0-0--0-0-0-0-0-0---|
  pm....................................
Guitar 3
|-----19--|----19-----19-----19-----19--|
|-----22--|----22-----22-----22-----22--|
|---------|-----------------------------|
|---------|-----------------------------|
|---------|-----------------------------|
|---------|-----------------------------|


Fill - Guitar 1 (Left Track Only)
|------------------------------------|
|------------------------------------|
|------------------------------------|
|------------------------------------|
|-4-/5------4---4-/5------4------4---|
|-2-/3---0--2---2-/3---0--2---0--2---|
         pm.           pm.    pm.


B (Both Guitars)
|---------------------------------------------------------------|
|---------------------------------------------------------------|
|---------------------------------------------------------------|
|---------------------------------------------------------------|
|-4-/5------4------4---4-/5------4------4---4-/5-----4---4-/5---|
|-2-/3---0--2---0--2---2-/3---0--2---0--2---2-/3--0--2---2-/3---|
         pm.    pm.           pm.    pm.          pm.


C    (1, 2, 3, 5 & 6)                 (4)
|-----------------------|------------------------------|
|-----------------------|------------------------------|
|-----------------------|------------------------------|
|-----------------------|----/4------------------------|
|-5--4----5--4--4--4----|-5--/2--4--4----5--4--4--4----|
|-3--2----3--2--2--2----|-3------2--2----3--2--2--2----|
  pm....................  pm.    pm....................


D               (1)                           (2 & 3)        Play D  2
Times
|---------------------------------|---------------------------|
|---------------------------------|---------------------------|
|---------------------------------|---------------------------|
|---/4-----4---------------4------|------4---------------4----|
|---/2--5--4------5--4--4--4------|---5--4------5--4--4--4----|
|-0-----3--2----0-3--2--2--2------|-0-3--2----0-3--2--2--2----|
  pm    pm.     pm.........         pm...     pm.........


E1                (1, 2 & 3)
|----------------------------------------------|
|----------------------------------------------|
|----------------------------------------------|
|----------------------------------------------|
|-2---5---4---2--------------------------------|
|-0---3---2---0---0-0--0--0-0--0--0-0--0--0-0--|
  pm..            pm...........................


E2                (4)      Note: "5'" are artificial harmonics
|----------------------------------------------------|
|----------------------------------------------------|
|----------------------------------------------------|
|----------------------------------------------------|
|------------------------------------------------2---|
|-0--5'0--0--5'0--0--5'0--0--5'0--0--5'0--0--5'0-0---|
  pml............................................pm..


Repeat C & D


F (1)                     (2, 3, 4 & 5)
|----|--------------------------------------------------------|
|----|--------------------------------------------------------|
|----|--------------------------------------------------------|
|----|-3---3-------3---3----------3---3-------3---3-----------|
|----|-1---1-------1---1----------1---1-------1---1-----------|
|-2--|--------3-2--------3-2-1-2---------3-2--------3-2-1-2-3-|
  pm.         pm...      pm.......       pm...      pm........


Repeat C
Repeat A x 2  (w/Guitar 3 coming in the second time)


A'  (16th Time)           Chord Fade Out
|--------------------------------------|
|--------------------------------------|
|-----------------------6--------------|
|-----------------------4--------------|
|-----------------------4--------------|
|-0-0-0--0-0-0--0-0-0-0-2--------------|
  pm....................
Guitar 3
|----19-----19-----19------------------|
|----22-----22-----22------------------|
|--------------------------------------|
|--------------------------------------|
|--------------------------------------|
|--------------------------------------|


G - Clean Tone Guitar (with Echo Effects)            Play 12 Times
|-------------------------------------------------0-|
|---------1-------------------------1-------2---2---|
|-------0-------0-------0---------0-------0---0-----|
|-----4-------4---4---4---4-----4-------4-----------|
|-------------------------------------1-------------|
|-3-2-------0-------2-------3-2---------------------|



H - play with Riff G the 3rd & 4th Times
|---------------------------------------------------|
|---------------------------------------------------|
|-------------------------------------3-----4-------|
|-5-4-------2---------------5-4-------3-----4-------|
|-5-4-------2---------------5-4-------1-----2-------|
|-3-2-------0---------------3-2---------------------|



1st - Guitar Solo (over Riff G - 5th to 12th times)
|---------------|-----------------|------------------|----------/6-----|

|---------------|-----------------|------------------|-------------7-6-|

|-4-6~----(6)\--|-/7-6-4-3--------|--------4-6~------|---6-7-9-7-------|

|---------------|-----------4-2-4-|-(4)\-------------|-----------------|

|---------------|-----------------|------------------|-----------------|

|---------------|-----------------|------------------|-----------------|



|-9-9--9-9--9h10-9---9-9-10-12-10-9-|---------------------|
|-----------------------------------|-11-10-7-6-----------|
|-----------------------------------|-----------7-9---10\-|
|-----------------------------------|---------------------|
|-----------------------------------|---------------------|
|-----------------------------------|---------------------|

                                                            Under Riff I

|------------------|---------9-----/14--------------------|
|----21~--------|
|------------------|-----6-7---7-6------------18-19-21-19-|
|-18------------|
|--7--9--6---------|-6-7-----------------19-21------------|
|---------------|
|----------------8-|--------------------------------------|
|---------------|
|-----------10p9---|--------------------------------------|
|---------------|
|------------------|--------------------------------------|
|---------------|



I      (1, 2, & 3)          (4)        Play Riff I 2 Times
|---------------------|----------------------|
|---------------------|----------------------|
|----------4----------|----------4-----3-----|
|-5-4------2----------|-5-4------2-----3-----|
|-5-4------2----------|-5-4------2-----1-----|
|-3-2------0----------|-3-2------0-----------|


Fill
|---------------------|
|---------------------|
|---------------------|
|---------------------|
|---------------------|
|-2-2-2-2-2-2-2-2-----|
  pm..................


J                          Play 28 Times
|--------------------------------------|
|--------------------------------------|
|--------------------------------------|
|--------------------------------------|
|--------------------------------------|
|-2-2-2-2-2-2-2-2--2-2-2-2-2-2-2-2-----|
  pm...................................



2nd Solo over Riff J - 15th to 28th Times  (Not Tabbed!!!)



K    (1, 2, 3, 4, 5, 6 & 7)                       (8)
|------------------------------|---------------------------------------|

|------------------------------|---------------------------------------|

|------------------------------|--------------------------4------------|

|------------------------------|--------------------------2------------|

|-3--2--2--2------3--2--2--2---|-3--2--2--2------3--2--2--2------------|

|-1--0--0--0------1--0--0--0---|-1--0--0--0------1--0--0--0------------|

  pm......................................................


L - Guitar 1  (Left Track)
|-----------------------------------------------------------------------------|

|-----------------------------------------------------------------------------|

|-----------------------------------------------------------------------------|

|-----------------------------------------------------------------------------|

|-4-/5------4---4-/5------4------4---4-/5-----4------4---4-/5------4------4---|

|-2-/3---0--2---2-/3---0--2---0--2---2-/3--0--2---0--2---2-/3---0--2---0--2---|

         pm.           pm.    pm.          pm.    pm.           pm.
pm.
L" - Guitar 2 (Right Track)
|-----------------------------------------------------------------------------|

|-----------------------------------------------------------------------------|

|-----------------------------------------------------------------------------|

|-----------------------------------------------------------------------------|

|----5------4------5------4------4------5-----4------4------5------4------4---|

|----3------2------3------2------2------3-----2------2------3------2------2---|



(Pause)
Repeat L x 2  (Both Guitars)
Repeat E1  (4 Times)
Repeat F
Repeat A x 2  (w/ Guitar 3 coming in the second Time)

The End.


Erik
-----------------------





Comments


Popular Meshuggah tabs & chords
Beneath Bass Tabs
Future Breed Machine Bass Tabs
Neurotica Bass Tabs
Neurotica 2 Bass Tabs
New Millenium Cyanide Christ Bass Tabs
The Exquisite Machinery Of Torture 2 Bass Tabs
Cadaverous Mastication Tabs
New Millenium Cyanide Christ Tabs
Sane Tabs
Terminal Illusions Tabs


Song lyrics



↑ Back to top | Tablatures and chords are parodies/interpretations of the original songs. You may use it for private study, scholarship, research or language learning purposes only
© 2014 AZChords.com Contact us | Privacy policy | DMCA | Add/correct tabs | Request tabs | Top 50 tabs