» » »

Meshuggah, Future Bread Machine Bass tabs (ver.1)

Artists:  A B C D E F G H I J K L M N O P Q R S T U V W X Y Z # 

Future Bread Machine Bass tabs (ver.1)

Meshuggah Tabs
Rating:
0/5 (0 votes)
Future Bread Machine lessons Tabs too difficult? Try these video lessons and learn fast
                meshuggah
Future Breed Machine
Tuning:A#,G#,F#,C#,F#


F#--------------------|
C#--------------------|
F#--------------------|
G#--------------------|
A#-0-00-000-00-000-00-|

                      2 times
-----------------------------------|
-----------------------------------|
-----------------------------------|
-----------------------------------|
-3-2---2------3-2---2----2---2-----|

--------------------------------------------|
--------------------------------------------|
--------------------------------------------|
---------------------------------------3----|
-3-2---2------3-2---2----2---2-----3-3------|


                       2 times
-----------------------------------|
-----------------------------------|
-----------------------------------|
-----------------------------------|
-3-2---2------3-2---2----2---2-----|


--------------------------------------------|
--------------------------------------------|
--------------------------------------------|
---------------------------------------3----|
-3-2---2------3-2---2----2---2-----3-3------|

                                2 times

---------------------------------------------|
---------------------------------------------|
---------------------------------------------|
---------------------------------------------|
-3-2---2-(2)-2---3-2---2----2---2-(2)---2----|

------------------------------------------------------|
------------------------------------------------------|
------------------------------------------------------|
------------------------------------------------3-----|
-3-2---2-(2)-2---3-2---2----2---2-(2)---2---3-3-------|

-------------------------|--------------------------|
-------------------------|--------------------------|
-------------------------|--------------------------|
-------------------------|--------------------------|
-2---3---0---0---0---0---|-0---0---0---0---0---0----|

-------------------------|--------------------------|
-------------------------|--------------------------|
-------------------------|--------------------------|
-------------------------|--------------------------|
-3---2---0---0---0---0---|-0---0---0---0---0---0----|


-------------------------|--------------------------|
-------------------------|--------------------------|
-------------------------|--------------------------|
-------------------------|--------------------------|
-2---3---0---0---0---0---|-0---0---0---0---0---0----|

                       2 times
-----------------------------------|
-----------------------------------|
-----------------------------------|
-----------------------------------|
-3-2---2------3-2---2----2---2-----|


--------------------------------------------|
--------------------------------------------|
--------------------------------------------|
---------------------------------------3----|
-3-2---2------3-2---2----2---2-----3-3------|


                               2 times
---------------------------------------------|
---------------------------------------------|
---------------------------------------------|
---------------------------------------------|
-3-2---2-(2)-2---3-2---2----2---2-(2)---2----|


------------------------------------------------------|
------------------------------------------------------|
------------------------------------------------------|
------------------------------------------------3-----|
-3-2---2-(2)-2---3-2---2----2---2-(2)---2---3-3-------|

----------------------------------------|
----------------------------------------|
----------------------------------------|
-1----1----------1----1-----------------|
-----------3--2------------3--2--0--2---|


                    4 times
-------------------------------------------|
-------------------------------------------|
-------------------------------------------|
-1----1----------1----1--------------------|
-----------3--2------------3--2--0--2--3---|


 --------------------|
 --------------------|
 --------------------|
 --------------------|
 -0-00-000-00-000-00-|

 ---|--------------------|----------------------|
 ---|--------------------|----------------------|
 ---|-------------------|-----------------------|
 ---|--------------------|-------1-----2--------|
 -3-|-2-----0----------3-|-2-----------------3--|

---|----------------|-----------------|---------------|------------------|
---|----------------|-----------------|---------------|------------------|
---|----------------|-----------------|---------------|------------------|
---|----------------|-----------------|---------------|-1-1-1-1-1-1-1----|
-3-|--2------0------|-(0)----------3--|--2-----0------|---------------3--|
|____________________ _ _ _ _ _ _ _ _ _ _ _ _________|
                      play these bars 2 times..

----------------|-----------------|---------------|------------------|
----------------|-----------------|---------------|------------------|
----------------|-----------------|---------------|------------------|
----------------|-----------------|---------------|-1----------------|
--2------0------|-(0)----------3--|--2-----0------|------------------|
|____________________ _ _ _ _ _ _ _ _ _ _ _ ____|
                      play these bars 2 times..


                                       (4 times)
 -----------------------------------------------------|
 -----------------------------------------------------|
 -----------------------------------------------------|
 -----------------------------------------------------|
 -2-2-2-2---2-2-2-2---2------2-2-2-2---2-2-2-2---2----|


 --------------------------------|
 --------------------------------|
 --------------------------------|
 --------------------------------|
 --0--0--0--0-------0--0--0--0---|
play it like it should jump..

-----------------------------------------------------------------|---------------|
-----------------------------------------------------------------|---------------|
-----------------------------------------------------------------|---------------|
-----------------------------------------------------------------|---------------|
--0--0--0--0-------0--0--0--0------0--0--0--0-------0--0--0--0---|-(0)----(0)----|


-----------------------------|
-----------------------------|
-----------------------------|
-----------------------------|
-2-2-222-2-2-222-2-2-222-2-2-|


-----------------------------------|
-----------------------------------|
-----------------------------------|
-----------------------------------|
-3-2---2------3-2---2----2---2-----|


--------------------------------------------|
--------------------------------------------|
--------------------------------------------|
---------------------------------------3----|
-3-2---2------3-2---2----2---2-----3-3------|


----------------------------------------------------|
----------------------------------------------------|
----------------------------------------------------|
----------------------------------------------------|
-2---3---0---0---0---0-----0---0---0---0---0---0----|


----------------------------------------------------|
----------------------------------------------------|
----------------------------------------------------|
----------------------------------------------------|
-3---2---0---0---0---0-----0---0---0---0---0---0----|

----------------------------------------|
----------------------------------------|
----------------------------------------|
-1----1----------1----1-----------------|
-----------3--2------------3--2--0--2---|


                    4 times
-------------------------------------------|
-------------------------------------------|
-------------------------------------------|
-1----1----------1----1--------------------|
-----------3--2------------3--2--0--2--3---|


--------------------|
--------------------|
--------------------|
--------------------|
-0-00-000-00-000-00-|
            
Submit corrections

comments powered by Disqus
↑ Back to top | Meshuggah Bass for Future Bread Machine. Lyrics for acoustic guitar and electric guitar. Tablatures and chords are parodies/interpretations of the original songs. You may use it for private study, scholarship, research or language learning purposes only