» » »

Meshuggah, Beneath Tabs (ver.1)

Artists:  A B C D E F G H I J K L M N O P Q R S T U V W X Y Z # 

Beneath Tabs (ver.1)

Meshuggah Tabs
 Rating:
4/5 (4 votes)
Beneath lessons Tabs too difficult? Try these video lessons and learn fast
1
                
BENEATH
As recorded by Meshuggah
(From the 1995 Album DESTROY, ERASE, IMPROVE)

        

Words by Tomas Haake Music by Fredrik Thordendal

Gtr I (Bb Eb Ab Db Gb Bb Eb) - 'Meshuggah is Jazz'
Gtr II (A# D# G# C# F# A# D#) - 'Heavily distorted guitar'
Gtr III (Bb Eb Ab Db Gb Bb Eb) - '"Solo" guitar'

 Quiet Intro
  H=155
  Bsus4add9       Badd9b5         Badd9
 12/8
  Gtr I
  W.              W.              H.      H.        +H.      H.
|---------------|---------------|-----------------|----------------|
|---------------|---------------|---------4-------|-(4)------------|
|-6-------------|-6-------------|-6---------------|--6-------6-----|
|-2-------------|-3-------------|-4---------------|-(4)------------|
|-2-------------|-2-------------|-2---------------|-(2)------------|
|---------------|---------------|-----------------|----------------|
|---------------|---------------|-----------------|----------------|
                                  W.                 W.


  Badd9           Badd9b5           B6add9
  W.              H.      H.        H.       H.        +H     H     H
|---------------|-----------------|----------4-------|-(4)----------------|
|---------------|---------2-------|------------------|-------------(2)----|
|-6-------------|-6---------------|-6-------(6)------|--6-----6-----------|
|-2-------------|-3---------------|-4----------------|-(4)----------------|
|-2-------------|-2---------------|-2----------------|-(2)----------------|
|---------------|-----------------|------------------|--------------------|
|---------------|-----------------|------------------|--------------------|
                  W.                W.                  W.


  Badd9           Badd9b5         Bmadd9
  W.              W.              W.               H     W
|---------------|---------------|---------------|-------------|
|---------------|---------------|---------------|--3----------|
|-6-------------|-6-------------|-6-------------|-(6)----6----|
|-2-------------|-3-------------|-4-------------|-(4)---------|
|-2-------------|-2-------------|-2-------------|-(2)---------|
|---------------|---------------|---------------|-------------|
|---------------|---------------|---------------|-------------|
                                  W.              +W.


  Bsus4add9       Badd9b5           B6add9
  W.              H.      H.        W.               H     H     H
|---------------|-----------------|---------------|--4-----------------|
|---------------|---------2-------|---------------|-------------(2)----|
|-6-------------|-6---------------|-6-------------|-(6)----6-----------|
|-2-------------|-3---------------|-4-------------|-(4)----------------|
|-2-------------|-2---------------|-2-------------|-(2)----------------|
|---------------|-----------------|---------------|--------------------|
|---------------|-----------------|---------------|--------------------|
                  W.                W.              +W.


   Main intro
    Q.=177
    Bsus4add9         Badd9b5
   12/8
    Gtr II
            PM------|
     Q.   E E E E E E  Q.
||--------------------------|
||--------------------------|
||o-------------------------|
||--11----------------11----|
||o--7-----------------8----|
||---7-----------------7----|
||----------0-0---0-0-------|


              Badd9               Badd9b5
                      PM--------|           PM    PM
  E E E E E E  Q.   E E E   E E E  Q.   E E E E E E  3x
|-------------------------|--------------------------||
|-------------------------|--------------------------||
|-------------------------|-------------------------o||
|-------------11----------|-------11-----------------||
|--------------9----------|--------8----------------o||
|--------------7----------|--------7-----------------||
|---0-0---0-0---------0-0-|---0-0-------5S4-1-5S4-1--||


  Bsus4add9         Badd9b5             Badd9               Badd9b5
          PM------|           PM------|         PM--------|
   Q.   E E E E E E  Q.     E E E E E E  Q.   E E E   E E E  Q.    Q  E Q.
|-------------------------|-------------------------|------------------------||
|-------------------------|-------------------------|------------------------||
|-------------------------|-------------------------|------------------------||
|-11----------------11----|-------------11----------|-------11---------------||
|--7-----------------8----|--------------9----------|--------8----18s=x-x\---||
|--7-----------------7----|--------------7----------|--------7----18s=x-x\---||
|---------0-0---0-0-------|---0-0---0-0---------0-0-|---0-0-------18s=x-x\---||


 Exposition of main riff
  N.C.
 6/8
                              PM--|       PM--|       PM--|     PM
  Wx15        Q  E Q.     E E E E E E   E E E E E E   E E E E E E
|-----------|-----------|-------------|-------------|--------------|
|-----------|-----------|-------------|-------------|--------------|
|-----------|-----------|-------------|-------------|--------------|
|-----------|-----------|-------------|-------------|--------------|
|-----------|----xsx\---|-------------|-------------|--------------|
|-----------|----xsx\---|-------------|-------------|--------------|
|-----------|----xsx\---|-5s4-1-1-1-5s|=4-1-1-1-5s4-|-1-1-1-5s4-1--|


  PM|     PM----|     PM--|       PM--|       PM--|       PM--|     PM
  E E E E E E   E E E E E E   E E E E E E   E E E E E E   E E E E E E
|-------------|-------------|-------------|-------------|-------------|
|-------------|-------------|-------------|-------------|-------------|
|-------------|-------------|-------------|-------------|-------------|
|-------------|-------------|-------------|-------------|-------------|
|-------------|-------------|-------------|-------------|-------------|
|-------------|-------------|-------------|-------------|-------------|
|-1-1-5s4-1-1-|-1-5s4-1-1-1-|-5s4-1-1-1-5s|=4-1-1-1-5s4-|-1-1-1-5s4-1-|


   Verse 1
    N.C.(B7b13+11b9/C)
        PM--|       PM--|       PM--|     PM----|     PM|
    E E E E E E   E E E E E E   E E E E E E   E E E E E E
||--------------|-------------|-------------|-------------|
||--------------|-------------|-------------|-------------|
||o-------------|-------------|-------------|-------------|
||--------------|-------------|-------------|-------------|
||o-------------|-------------|-------------|-------------|
||--------------|-------------|-------------|-------------|
||--5s4-1-1-1-5s|=4-1-1-1-5s4-|-1-1-1-5s4-1-|-1-1-5s4-1-1-|


  PM    PM--|       PM--|       PM--|       PM--|     PM
  E E E E E E   E E E E E E   E E E E E E   E E E E E E  5x
|-------------|-------------|-------------|--------------||
|-------------|-------------|-------------|--------------||
|-------------|-------------|-------------|-------------o||
|-------------|-------------|-------------|--------------||
|-------------|-------------|-------------|-------------o||
|-------------|-------------|-------------|--------------||
|-1-5s4-1-1-1-|-5s4-1-1-1-5s|=4-1-1-1-5s4-|-1-1-1-5s4-1--||


   Post-Verse
    N.C.  D5  D#5 N.C. F5  D5    D#N.C.E5F5     D5D#5 E5F5
    E E E E E E   Q  E E E E   E E E E E  E   E E E E E  E
||--------------|------------|--------------|--------------|
||--------------|------------|--------------|--------------|
||o-------------|------------|--------------|--------------|
||--------7---8-|----------7-|---8-----9s10-|---7S8---9S10-|
||o-------5---6-|----------5-|---6-----7s=8-|---5S6---7S=8-|
||--------5---6-|------8---5-|---6-----7s=8-|---5S6---7S=8-|
||--0-2-0-3-0-4-|----0-6-0-3-|-0-4-----5s=6-|-0-3S4-0-5S=6-|


    D5  D#N.C.   D5  F5   D#5   D5C#N.D5C#5 D#D5F#5  D#D5
  E E E E Q    E E E  E E E   E E E E E E   E E  E E E E
|------------|--------------|-------------|---------------||
|------------|--------------|-------------|---------------||
|------------|--------------|-------------|--------------o||
|------------|-------10-----|-------------|-8S7-11--------||
|---5---6----|---5----8---6-|---5S4---5S4-|-6S5--9-------o||
|---5---6----|---5----8---6-|---5S4---5S4-|-6S5--9---6S5--||
|-0-3-0-4----|-0-3-0--6-0-4-|---3S2-0-3S2-|-4S3--7-0-4S3--||


   Tommy bit (prechorus)
    Aadd9b5   N.C.(D)
           PM-----------------------------------------------|
    E E E  E   E  E   E E E E E E   E E E E E E   E E E E E E  4x
||------------------|-------------|-------------|--------------||
||------------------|-------------|-------------|--------------||
||o-----------------|-------------|-------------|-------------o||
||--9-9-9-----------|-------------|-------------|--------------||
||o-6-6-6-(6)-------|-------------|-------------|-------------o||
||--5-5-5--5--(5)---|-------------|-------------|--------------||
||-------------3--4-|-3-3-4-3-3-4-|-3-3-4-5-4-2-|-2-3-4-3-3-4--||


   CHORUSsed guitar
    Aadd9b5     N.C.(D)      D                           D#
                PM-------|                PM--------|                   PM
      Q.   +Q   E     E  E E Q.      +Q   E E E E     E  Q         +Q   E
||----------------|---------------|---------------|------------------------|
||----------------|---------------|---------------|------------------------|
||o---------------|---------------|---------------|------------------------|
||----9----(9)----|---------------|---------------|------------------------|
||o---7----(7)----|----------5----|--(5)----------|------6---------(6)-----|
||----5----(5)--5-|------7---5----|--(5)--x-5---5-|------6---------(6)--x--|
||--------------3-|------5---3----|--(3)--x-3---3-|------4---------(4)--x--|
|
|   Gtr III
|     H.             +H.             +H.             +Q     +S   S  Q.
||----------------|---------------|---------------|------------------------|
||----------------|---------------|---------------|------------------------|
||o-/16-----------|-(16)----------|-(16)----------|-(16)---(16)-16S18------|
||----------------|---------------|---------------|------------------------|
||o-/14-----------|-(14)----------|-(14)----------|-(14)---(14)-14S16------|
||----------------|---------------|---------------|------------------------|
||----------------|---------------|---------------|------------------------|


  Aadd9b5     N.C.          D                             D#
               PM-------|                  PM----|                PM
   Q.    +Q    E     E  E E   Q.      +Q   E E E E     E  Q  +Q   E  4x
|----------------|-----------------|---------------|-----------------||
|----------------|-----------------|---------------|-----------------||
|----------------|-----------------|---------------|----------------o||
|--9-----(9)-----|-----------------|---------------|-----------------||
|--7-----(7)-----|------------5----|--(5)----------|------6--(6)----o||
|--5-----(5)---5-|------7-----5----|--(5)--x-5---5-|------6--(6)--x--||
|--------------3-|------5-----3----|--(3)--x-3---3-|------4--(4)--x--||
|
|  Q.    +Q    E    +Q.      +Q.      +H.             +H.            4x
|----------------|-----------------|---------------|-----------------||
|----------------|-----------------|---------------|-----------------||
|-14----(14)--12-|-(12)-----(12)---|-(12)----------|-(12)-----------o||
|----------------|-----------------|---------------|-----------------||
|-12----(12)--10-|-(10)-----(10)---|-(10)----------|-(10)-----------o||
|----------------|-----------------|---------------|-----------------||
|----------------|-----------------|---------------|-----------------||


   Riff and Verse 2
    N.C.(B7b13+11b9/C)
        PM  PM      PM  PM      PM  PM    PM    PM    PM
    E E E E E E   E E E E E E   E E E E E E   E E E E E E
||--------------|-------------|-------------|-------------|
||--------------|-------------|-------------|-------------|
||o-------------|-------------|-------------|-------------|
||--------------|-------------|-------------|-------------|
||o-------------|-------------|-------------|-------------|
||--------------|-------------|-------------|-------------|
||--5s4-1---1-5s|=4-1---1-5s4-|-1---1-5s4-1-|---1-5s4-1---|


  PM    PM  PM      PM  PM      PM  PM      PM  PM    PM
  E E E E E E   E E E E E E   E E E E E E   E E E E E E  4x
|-------------|-------------|-------------|--------------||
|-------------|-------------|-------------|--------------||
|-------------|-------------|-------------|-------------o||
|-------------|-------------|-------------|--------------||
|-------------|-------------|-------------|-------------o||
|-------------|-------------|-------------|--------------||
|-1-5s4-1---1-|-5s4-1---1-5s|=4-1---1-5s4-|-1---1-5s4-1--||


 Solo
  N.C.(B7b13+11b9/C)
     PM---------------------------------------
     E     E E   E  E E     E  E E   E  E  E
|-----------------------|--------------------|
|-----------------------|--------------------|
|-----------------------|--------------------|
|-----------------------|--------------------|
|-----------------------|--------------------|
|-----------------------|--------------------|
|----5s====4-1------1-5s|===4--1-----1--5s=4-|
|
| Gtr III
| a  S  S  Q    +Q.        +Q.       E  E  E
|-----------------------|--------------------|
|-----------------------|--------------------|
|-----------------------|--------------------|
|-----------------------|--------------------|
|-----------------------|-----------------12-|
|-----------------------|----------/11h13----|
|-8s10s12-12---(12)-----|-(12)---------------|


 -|        PM--------------------|
    E   E  E  E E E     E  E E E E E
|-------------------|-----------------|
|-------------------|-----------------|
|-------------------|-----------------|
|-------------------|-----------------|
|-------------------|-----------------|
|-------------------|-----------------|
|---1------1--5s4-1-|------1-5s4-1----|
|
|  +E   E  E  Q.       +H.
|-------------------|-----------------|
|-------------------|-----------------|
|-------------------|-----------------|
|------------13-----|-(13)------------|
|-(12)----12--------|-----------------|
|------13-----------|-----------------|
|-------------------|-----------------|


    PM------------------------------------
    E   E  E  E  E E     E  E E  E  E  E
|--------------------|-------------------|
|--------------------|-------------------|
|--------------------|-------------------|
|--------------------|-------------------|
|--------------------|-------------------|
|--------------------|-------------------|
|---1---5--4--1----1-|---5--4-1-----1--5-|
|
|  +E   E  E  E  Q      +Q.      E  E  E
|--------------------|-------------------|
|--------------------|-------------------|
|---------------14---|-(14)--------14h16-|
|-(13)----13h15------|----------15-------|
|------12------------|-------------------|
|--------------------|-------------------|
|--------------------|-------------------|


 -----------------------------------|
   E  E  E  E  E  E    E  E  E  E E  E
|-------------------|------------------|
|-------------------|------------------|
|-------------------|------------------|
|-------------------|------------------|
|-------------------|------------------|
|-------------------|------------------|
|--4--1-----1--5--4-|--1-----1--5-4--1-|
|
|  T                   T
|  E  E  E  E  E  E    E  E  E  Q    E
|-------------------|------------------|
|-------------------|-------16-18---19-|
|-20-16p14----14h16-|-20p16------------|
|----------15-------|------------------|
|-------------------|------------------|
|-------------------|------------------|
|-------------------|------------------|


   PM-------------------------------------
   E  E E  E  E  E    E  E   E   E  E  E
|------------------|---------------------|
|------------------|---------------------|
|------------------|---------------------|
|------------------|---------------------|
|------------------|---------------------|
|------------------|---------------------|
|--5--4-1-----1--5-|--4--1-------1--5--4-|
|
|          T
|  Q.      E  E  E    E  E   E   E  E  E
|---------20-13p11-|---------------------|
|-18---------------|-13p12-[13]-12p10----|
|------------------|------------------11-|
|------------------|---------------------|
|------------------|---------------------|
|------------------|---------------------|
|------------------|---------------------|


 --------------------------------------|
   E  E   E   E  E  E     E  E E  E  E E
|---------------------|------------------|
|---------------------|------------------|
|---------------------|------------------|
|---------------------|------------------|
|---------------------|------------------|
|---------------------|------------------|
|--1------1---5--4--1-|------1-5--4--1---|
|
|  E  E   E   E  E  E    +Q.      Q.
|------------------11-|-(11)-----13------|
|-10h12-[13]----12----|------------------|
|------------10-------|------------------|
|---------------------|------------------|
|---------------------|------------------|
|---------------------|------------------|
|---------------------|------------------|


    PM---------------------------------------------------------------------|
    E  E E  E  E E     E  E E  E  E E    E  E E  E  E E    E      E E E  E E
|------------------|------------------|-----------------|--------------------|
|------------------|------------------|-----------------|--------------------|
|------------------|------------------|-----------------|--------------------|
|------------------|------------------|-----------------|--------------------|
|------------------|------------------|-----------------|--------------------|
|------------------|------------------|-----------------|--------------------|
|---1--5-4--1----1-|---5--4-1-----1-5-|--4--1----1--5-4-|--1--------1-5--4-1-|
|
|   ~~~~               ~~~~
|  +Q.      Q.        +Q.      Q.        Q.      Q.        Q.         Q.
|-(13)-----14------|-(14)-----17------|-----------------|--------------------|
|------------------|------------------|-19------18------|-19b19.5------------|
|------------------|------------------|-----------------|--------------------|
|------------------|------------------|-----------------|--------------------|
|------------------|------------------|-----------------|--------------------|
|------------------|------------------|-----------------|--------------------|
|------------------|------------------|-----------------|--------------------|


  PM----------------------------------------
  E E E  E     E E    E     E E  E     E E
|------------------|-----------------------|
|------------------|-----------------------|
|------------------|-----------------------|
|------------------|-----------------------|
|------------------|-----------------------|
|------------------|-----------------------|
|-5s4-1--------1-5s|==4-----1----1-----5s4-|
|
| Q.     Q.           Q.         Q.
|------------------|-----------------------|
|------------------|-14b16=================|
|-------12b14======|============15b17======|
|------------------|-----------------------|
|------------------|-----------------------|
|------------------|-----------------------|
|------------------|-----------------------|


 ---------------------------------------|
   E     E E  E E E     E       E E E E E
|-------------------|---------------------|
|-------------------|---------------------|
|-------------------|---------------------|
|-------------------|---------------------|
|-------------------|---------------------|
|-------------------|---------------------|
|--1-------1--5s4-1-|-----------1-5s4-1---|
|
|                       ~~~~~~~~~
|  Q.         Q.       +H.
|-------------------|---------------------|
|-16b18=============|=====================|
|------------16-----|-(16)b16.5-----------|
|-------------------|---------------------|
|-------------------|---------------------|
|-------------------|---------------------|
|-------------------|---------------------|


    PM-----------------------------------
    E  E E  E  E  E    E  E  E  E  E  E
|-------------------|-------------------|
|-------------------|-------------------|
|-------------------|-------------------|
|-------------------|-------------------|
|-------------------|-------------------|
|-------------------|-------------------|
|---1--5-4--1-----1-|--5--4--1-----1--5-|
|
|   ~~~~
|  +Q.      E  E  E    E  E  E  E  E  E
|-------------------|-17----------16----|
|-------------16h18-|----19p18p16----18p|
|-(16)-----16-------|-------------------|
|-------------------|-------------------|
|-------------------|-------------------|
|-------------------|-------------------|
|-------------------|-------------------|


 ------------------------------------|
   E  E  E  E  E  E    E  E  E  E  E  E
|-------------------|-------------------|
|-------------------|-------------------|
|-------------------|-------------------|
|-------------------|-------------------|
|-------------------|-------------------|
|-------------------|-------------------|
|--4--1-----1--5--4-|--1-----1--5--4--1-|
|
|  E  E  E  E  E  E    E  E  E  E  E  E
|-------15----------|-14----------13----|
|-17p16----17-16-15-|----16-15-14----15-|
|-------------------|-------------------|
|-------------------|-------------------|
|-------------------|-------------------|
|-------------------|-------------------|
|-------------------|-------------------|


   PM------------------------------------
   E  E  E  E  E  E    E  E  E  E  E  E
|-------------------|-------------------|
|-------------------|-------------------|
|-------------------|-------------------|
|-------------------|-------------------|
|-------------------|-------------------|
|-------------------|-------------------|
|--5--4--1-----1--5-|--4--1-----1--5--4-|
|
|  E  E  E  E  E  E    E  E  E  E  E  E
|-------11----------|-------------------|
|-13-12----13-12-10-|-12p10-------10h12-|
|-------------------|-------10h11-------|
|-------------------|-------------------|
|-------------------|-------------------|
|-------------------|-------------------|
|-------------------|-------------------|


 ---------------------------------|
   E  E  E  E  E  E    E  E  E  E  E  E
|-------------------|-------------------|
|-------------------|-------------------|
|-------------------|-------------------|
|-------------------|-------------------|
|-------------------|-------------------|
|-------------------|-------------------|
|--1-----1--5s=4s=1-|-----1--5--4--1----|
|
|  E  E  E  E  E  E    E  E  E  E  E  E
|----11-------------|-------------------|
|-13----13-12p10h12-|-10-------10-------|
|-------------------|----10-11----11-10-|
|-------------------|-------------------|
|-------------------|-------------------|
|-------------------|-------------------|
|-------------------|-------------------|


   PM------------------------------------
   E  E  E  E  E  E    E  E  E  E  E  E
|-------------------|-------------------|
|-------------------|-------------------|
|-------------------|-------------------|
|-------------------|-------------------|
|-------------------|-------------------|
|-------------------|-------------------|
|--1--5--4--1-----1-|--5--4--1-----1--5-|
|
|  E  E  E  E  E  E    E  E  E  E  E  E
|-------------------|-------------------|
|-------------------|-------------------|
|-------------------|-------------------|
|-13-15-13-------13-|-------------------|
|----------14h15----|-14p12----12-------|
|-------------------|-------14----14-13-|
|-------------------|-------------------|


 ------------------------------------|
   E  E  E  E  E  E    E  E  E  E  E   E
|-------------------|----------------------|
|-------------------|----------------------|
|-------------------|----------------------|
|-------------------|----------------------|
|-------------------|----------------------|
|-------------------|----------------------|
|--4--1-----1--5--4-|--1-----1--5--4---1---|
|
|  E  E  E  E  E  E    E  E  E  E  E   E
|-------------------|----------------------|
|-------------------|----------------------|
|-------------------|----------------------|
|-------------------|----------------------|
|----12-------------|----------------------|
|-14----14-13p11h13-|-11-------11h13h(14)/-|
|-------------------|----12h13-------------|


   Post-Verse 2
    N.C.  D5  D#5 N.C. F5  D5    D#N.C.E5F5     D5D#5 E5F5
    E E E E E E   Q  E E E E   E E E E E  E   E E E E E  E
||--------------|------------|--------------|--------------|
||--------------|------------|--------------|--------------|
||o-------------|------------|--------------|--------------|
||--------7---8-|----------7-|---8-----9s10-|---7S8---9S10-|
||o-------5---6-|----------5-|---6-----7s=8-|---5S6---7S=8-|
||--------5---6-|------8---5-|---6-----7s=8-|---5S6---7S=8-|
||--0-2-0-3-0-4-|----0-6-0-3-|-0-4-----5s=6-|-0-3S4-0-5S=6-|


    D5  D#N.C.   D5  F5   D#5   D5C#N.D5C#5 D#D5F#5  D#D5
  E E E E Q    E E E  E E E   E E E E E E   E E  E E E E
|------------|--------------|-------------|---------------||
|------------|--------------|-------------|---------------||
|------------|--------------|-------------|--------------o||
|------------|-------10-----|-------------|-8S7-11--------||
|---5---6----|---5----8---6-|---5S4---5S4-|-6S5--9-------o||
|---5---6----|---5----8---6-|---5S4---5S4-|-6S5--9---6S5--||
|-0-3-0-4----|-0-3-0--6-0-4-|---3S2-0-3S2-|-4S3--7-0-4S3--||


   Recapitulation
    Bsus4add9         Badd9b5
   12/8
     Q.   E E E E E E  Q.
||--------------------------|
||--------------------------|
||o-------------------------|
||--11----------------11----|
||o--7-----------------8----|
||---7-----------------7----|
||----------0-0---0-0-------|


              Badd9               Badd9b5
  E E E E E E  Q.   E E E   E E E  Q.   E E E E E E
|-------------------------|--------------------------||
|-------------------------|--------------------------||
|-------------------------|-------------------------o||
|-------------11----------|-------11-----------------||
|--------------9----------|--------8----------------o||
|--------------7----------|--------7-----------------||
|---0-0---0-0---------0-0-|---0-0-------5S4-1-5S4-1--||


    Cadd9b5
   9/8
            PM------|              PM--------------------------|
     Q   Q  E E E E E  6x  Q   E E E E E E E   E  E E E  E E E E E
||---------------------||--------------------|---------------------||
||---------------------||--------------------|---------------------||
||o-------------------o||--------------------|---------------------||
||--12--12-------------||-12--12-------------|---------------------||
||o--9---9------------o||--9---9-------------|---------------------||
||---8---8-------------||--8---8-------------|---------------------||
||----------1-1---1-1--||----------1-1---1-1-|----1-1-1----1-1-1---||
|
|   Gtr III
|    W                 6x  W                   Q.     Q.     E Q
||---------------------||--------------------|---------------------||
||---------------------||--------------------|---------------------||
||o-------------------o||--------------------|-----------------4---||
||---------------------||--------------------|---------------------||
||o-------------------o||--------------------|---------------------||
||---------------------||--------------------|---------------------||
||---------------------||--------------------|---------------------||


   Rhythm Bit
    B°
   12/8
     PM--------------------------------------------------|
     E  Q  E E E  E  E E E Q     E  E E E E E  Q   E E E E
||----------------------------|----------------------------|
||----------------------------|----------------------------|
||o---------------------------|----------------------------|
||----------------------------|----------------------------|
||o---------------------------|----------------------------|
||----------------------------|----------------------------|
||---0-----0-0-------0-0-0----|--0--0-----0-0------0-0-0---|
|
|   Gtr III
|    TP           TP             TP            TP
|    H.           H.             H.            H.
||----------------------------|----------------------------|
||----------------------------|----------------------------|
||o-10-----------10-----------|-10------------10-----------|
||----------------------------|----------------------------|
||o---------------------------|----------------------------|
||----------------------------|----------------------------|
||----------------------------|----------------------------|


                              1.,2.,3.
      PM----------------------------------------------------|
   E  E E E E E  E  Q  E E E    Q   E E Q   E E   E    E  E E  4x
|----------------------------|---------------------------------||
|----------------------------|---------------------------------||
|----------------------------|--------------------------------o||
|----------------------------|---------------------------------||
|----------------------------|--------------------------------o||
|----------------------------|---------------------------------||
|-----0-0-----0--0-----0-0-0-|------0-0-----0-0-----------0-0--||
|
|  TP            TP             TP          TP    TP TPTP
|  H.            H.             H.          Q    +S  S Q.      4x
|----------------------------|---------------------------------||
|----------------------------|---------------------------------||
|-10------------10-----------|-10----------10---(10)S4-4------o||
|----------------------------|---------------------------------||
|----------------------------|--------------------------------o||
|----------------------------|---------------------------------||
|----------------------------|---------------------------------||


  4.
       PM----------------------------------------------|
   Q   E E Q   E E E E  E E   E  Q  E  E E E  E E E  E E
|---------------------------|----------------------------||
|---------------------------|----------------------------||
|---------------------------|----------------------------||
|---------------------------|----------------------------||
|---------------------------|----------------------------||
|---------------------------|----------------------------||
|------0-0-----0-0------0-0-|-0-----0--0------0-0-0----1-||
|
|  TP          TP
|  H.          Q   E Q.       Q.    Q.     Q.     Q.
|---------------------------|----------------------------||
|---------------------------|----------------------------||
|-10----------10------------|----------------------------||
|---------------------------|----------------------------||
|---------------------------|----------------------------||
|---------------------------|----------------------------||
|---------------------------|----------------------------||


   Verse 3
    N.C.(B7b13+11b9/C)
   6/8
        PM  PM      PM  PM      PM  PM    PM    PM    PM
    E E E E E E   E E E E E E   E E E E E E   E E E E E E
||--------------|-------------|-------------|--------------|
||--------------|-------------|-------------|--------------|
||o-------------|-------------|-------------|--------------|
||--------------|-------------|-------------|--------------|
||o-------------|-------------|-------------|--------------|
||--------------|-------------|-------------|--------------|
||--5-4-1---1-5-|-4-1---1-5-4-|-1---1-5-4-1-|---1-5-4-1----|


  PM    PM  PM      PM  PM      PM  PM        PM|     PM
  E E E E E E   E E E E E E   E E E E E E   E E E E E E  4x
|-------------|-------------|-------------|--------------||
|-------------|-------------|-------------|--------------||
|-------------|-------------|-------------|-------------o||
|-------------|-------------|-------------|--------------||
|-------------|-------------|-------------|-------------o||
|-------------|-------------|-------------|--------------||
|-1-5-4-1---1-|-5-4-1---1-5-|-4-1---1-5-4-|-1---1-5-4-1--||


   Post-Verse 3
    N.C.  D5  D#5 N.C. F5  D5    D#N.C.E5F5     D5D#5 E5F5
    E E E E E E   Q  E E E E   E E E E E  E   E E E E E  E
||--------------|------------|--------------|--------------|
||--------------|------------|--------------|--------------|
||o-------------|------------|--------------|--------------|
||--------7---8-|----------7-|---8-----9s10-|---7S8---9S10-|
||o-------5---6-|----------5-|---6-----7s=8-|---5S6---7S=8-|
||--------5---6-|------8---5-|---6-----7s=8-|---5S6---7S=8-|
||--0-2-0-3-0-4-|----0-6-0-3-|-0-4-----5s=6-|-0-3S4-0-5S=6-|


    D5  D#N.C.   D5  F5   D#5   D5C#N.D5C#5 D#D5F#5  D#D5
  E E E E Q    E E E  E E E   E E E E E E   E E  E E E E
|------------|--------------|-------------|---------------||
|------------|--------------|-------------|---------------||
|------------|--------------|-------------|--------------o||
|------------|-------10-----|-------------|-8S7-11--------||
|---5---6----|---5----8---6-|---5S4---5S4-|-6S5--9-------o||
|---5---6----|---5----8---6-|---5S4---5S4-|-6S5--9---6S5--||
|-0-3-0-4----|-0-3-0--6-0-4-|---3S2-0-3S2-|-4S3--7-0-4S3--||


   CHORUS 2
    Aadd9b5                  D5                          D#5
                PM-------|                PM--------|                   PM
      Q.   +Q   E     E  E E Q.      +Q   E E E E     E  Q         +Q   E
||----------------|---------------|---------------|------------------------|
||----------------|---------------|---------------|------------------------|
||o---------------|---------------|---------------|------------------------|
||----9----(9)----|---------------|---------------|------------------------|
||o---7----(7)----|----------5----|--(5)----------|------6---------(6)-----|
||----5----(5)--5-|------7---5----|--(5)--x-5---5-|------6---------(6)--x--|
||--------------3-|------5---3----|--(3)--x-3---3-|------4---------(4)--x--|
|
|   Gtr III
|     H.             +H.             +H.             +Q     +S   S  Q.
||----------------|---------------|---------------|------------------------|
||----------------|---------------|---------------|------------------------|
||o-/16-----------|-(16)----------|-(16)----------|-(16)---(16)-16S18------|
||----------------|---------------|---------------|------------------------|
||o-/14-----------|-(14)----------|-(14)----------|-(14)---(14)-14S16------|
||----------------|---------------|---------------|------------------------|
||----------------|---------------|---------------|------------------------|


  Aadd9b5                   D5                            D#5
               PM-------|                  PM----|                PM
   Q.    +Q    E     E  E E   Q.      +Q   E E E E     E  Q  +Q   E  4x
|----------------|-----------------|---------------|-----------------||
|----------------|-----------------|---------------|-----------------||
|----------------|-----------------|---------------|----------------o||
|--9-----(9)-----|-----------------|---------------|-----------------||
|--7-----(7)-----|------------5----|--(5)----------|------6--(6)----o||
|--5-----(5)---5-|------7-----5----|--(5)--x-5---5-|------6--(6)--x--||
|--------------3-|------5-----3----|--(3)--x-3---3-|------4--(4)--x--||
|
|  Q.    +Q    E    +Q.      +Q.      +H.             +H.            4x
|----------------|-----------------|---------------|-----------------||
|----------------|-----------------|---------------|-----------------||
|-14----(14)--12-|-(12)-----(12)---|-(12)----------|-(12)-----------o||
|----------------|-----------------|---------------|-----------------||
|-12----(12)--10-|-(10)-----(10)---|-(10)----------|-(10)-----------o||
|----------------|-----------------|---------------|-----------------||
|----------------|-----------------|---------------|-----------------||


   Tommy Bit (outro)
                                               1.,2.,3.
    Aadd9b5 (D5)
          PM----------------------------------------------|
    E E E E  E  E   E E E E E E   E E E E E E   E E E E E E  4x
||----------------|-------------|-------------|--------------||
||----------------|-------------|-------------|--------------||
||o---------------|-------------|-------------|-------------o||
||--9-9-9-9-------|-------------|-------------|--------------||
||o-6-6-6-6-------|-------------|-------------|-------------o||
||--5-5-5-5-(5)---|-------------|-------------|--------------||
||-----------3--4-|-3-3-4-3-3-4-|-3-3-4-5-4-2-|-2-3-4-3-3-4--||


  4.
        D5  D#5
  PM--------|
  E E E E E E    Q.   Q.     W
|-------------||-----------|------*|
|-------------||-----------|------*|
|-------------||-----------|------*|
|-------------||-----------|------*|
|-------5---6-||-----------|------*|
|-------5---6-||-----------|------*|
|-2-3-4-3-3-4-||-----------|------*|



Duration Legend
---------------
W - whole; H - half; Q - quarter; E - 8th; S - 16th; T - 32nd; X - 64th; a - acciaccatura
+ - note tied to previous; . - note dotted; .. - note double dotted
Uncapitalized letters represent notes that are staccato (1/2 duration)
Irregular groupings are notated above the duration line
Duration letters will always appear directly above the note/fret number it represents the
duration for.  Duration letters with no fret number below them represent rests.  Multi-
bar rests are notated in the form Wxn, where n is the number of bars to rest for.  Low
melody durations appear below the staff

Tablature Legend
----------------
 h   - hammer-on
 p   - pull-off
 b   - bend
 pb  - pre-bend
 r   - bend release (if no number after the r, then release immediately)
 /\  - slide into or out of (from/to "nowhere")
 s   - legato slide
 S   - shift slide
 - natural harmonic
[n]  - artificial harmonic
n(n) - tapped harmonic
 ~   - vibrato
 tr  - trill
 T   - tap
 TP  - trem. picking
 PM  - palm muting
\n/  - tremolo bar dip; n = amount to dip
 \n  - tremolo bar down
 n/  - tremolo bar up
/n\  - tremolo bar inverted dip
 =   - hold bend; also acts as connecting device for hammers/pulls
 <> - volume swell (louder/softer)
 x   - on rhythm slash represents muted slash
 o   - on rhythm slash represents single note slash

Misc Legend
-----------
 |  - bar
||  - double bar
||o - repeat start
o|| - repeat end
*|  - double bar (ending)
 :  - bar (freetime)
 $  - Segno
 &  - Coda
Tempo markers -  = BPM(8/16=s8/s16), where s8 = swing 8ths, s16 = swing 16ths
            
Submit corrections

comments powered by Disqus
↑ Back to top | Meshuggah Tabs for Beneath. Lyrics for acoustic guitar and electric guitar. 1 Tablatures and chords are parodies/interpretations of the original songs. You may use it for private study, scholarship, research or language learning purposes only