» » »

Today I Started Loving You Again Tabs (ver.1)

Artists:  A B C D E F G H I J K L M N O P Q R S T U V W X Y Z # 

Today I Started Loving You Again Tabs (ver.1)

Merle Haggard
Rating:
1/5 (2 votes)
Tabs too difficult? Try these video lessons and learn fast.
                "Today I Started Loving You Again"
 Key G - Capo 3
(My thanks to Mr. Wes Ford for teaching me this song.)

This song inlcludes chords and a lead solo.

Chorus:
G                C
Today I started loving you again. 
G                              C
Now I'm right back where I've really always been.
G                                   C
I got over you just long enough to let my heatache mend.
G                     D      G
Then, today I started loving you again.

Verse 1:
G                     C
What a fool I was to think I could get by
G                   C
With only these few million tears I cried
G                       C
I should have known the worst was yet to come
G                        D       G
And that cryin' time for me had just begun.

(Repeat Chorus)

Lead solo:
  G                 C
e|-----------------|-------------------|
B|-----------------|-------------------|
G|-----------------|-------------------|
D|-----------------|-------------------|
A|-----0h2---2-----|-3-0-3-0h3-0h3-0h3-|
E|-0-3-----3---0-3-|-------------------|
  G                 C
e|-----------------|-------------------|
B|-----------------|-------------------|
G|-----------------|-------------------|
D|-----------------|-------------------|
A|-----0h2---2-----|-3-0-3-0h3-0h3-0h3-|
E|-0-3-----3---0-3-|-------------------|
  G                 C
e|-----------------|-------------------|
B|-----------------|-------------------|
G|-----------------|-------------------|
D|-----------------|-------------------|
A|-----0h2---2-----|-3-0-3-0h3-0h3-0h3-|
E|-0-3-----3---0-3-|-------------------|
  D
e|-----------------|
B|-----------------|
G|-----------------|
D|-2-------2-------|
A|---3---3---3---2-|
E|-----2-------2---|

(Repeat Chorus)
(Repeat last line of Chorus)

Thanx Wes! Thanx guyz for checking this out! I hope it helped!
            
Tabs too difficult? Try these video lessons and learn fast.


comments powered by Disqus
↑ Back to top | Tablatures and chords are parodies/interpretations of the original songs. You may use it for private study, scholarship, research or language learning purposes only