» » »

Merle Haggard, Big City Tabs (ver.1)

Artists:  A B C D E F G H I J K L M N O P Q R S T U V W X Y Z # 

Big City Tabs (ver.1)

Merle Haggard Tabs
Rating:
0/5 (0 votes)
Big City lessons Tabs too difficult? Try these video lessons and learn fast
                Merle Haggard

Intro/Verse:

 e|----------------------------------------|
 B|----------------------------------------|
 G|----------------------------------------|
 D|--------------------------2-------2-0---|
 A|------0---------2-----3-3---3-3-3-------|
 E|--1-1---1-1-3-3---3-3-------------------|


 e|------------------------------------------|
 B|------------------------------------------|
 G|------------------------------------------|
 D|--------------------------2-2-2-3-2-------|
 A|------0---------2-----3-3-----------3-2---|
 E|--1-1---1-1-3-3---3-3---------------------|

e|--------------------------|
B|--------------------------|
G|--------------------------|
D|---------------------5----|
A|------0---------2/3-3-----|
E|--1-1---1-1-3-3-----------|


Chorus:
(A second guitar plays this over the second verse as well)


|------------------|
|------------------|
|------------------|
|------------5-----|
|--3----5----3-----|
|--1----3----------|


Bridge (1:20)

|-----------------|
|-----------------|
|-----------------|
|--5---3----------|
|--3---1---5------|
|----------3------|

|---------------------------------------------|
|---------------------------------------------|
|---------------------------------------------|
|--5-5-5-5-5-5-5-5-3-3-3------------5--3------|
|--3-3-3-3-3-3-3-3-1-1-1-5-5-----3--3--1--5---|
|------------------------3-3--------------3---|
            
Submit corrections

comments powered by Disqus
↑ Back to top | Merle Haggard Tabs for Big City. Lyrics for acoustic guitar and electric guitar. Tablatures and chords are parodies/interpretations of the original songs. You may use it for private study, scholarship, research or language learning purposes only