» » »

Smile Hats Tabs (ver.1)

Artists:  A B C D E F G H I J K L M N O P Q R S T U V W X Y Z # 

Smile Hats Tabs (ver.1)

Meriwether
Rating:
0/5 (0 votes)

Hard to play? Try these video lessons and learn fast.
                "Smile Hats"

Tuning: Drop D (DADGBe)

This is a simple song to play and it wasn't on the Meriwether tabs so i figured i'd give 
a shot. It sounds exactly like the song when i play it. Feel free to e-mail corrections 

Note: The whole song is played with light distortion.

VERSE
Guitar 1 & Guitar 2
-----------------------------------------------|
-----------------------------------------------|
--3-3--3-3--------------3-3--3-3---------------|
--3-3--3-3---4-4--4-4---3-3--3-3---4-4--4-4----| (Repeat x2)
--1-1--1-1---4-4--4-4---1-1--1-1---4-4--4-4----|
-------------4-4--4-4--------------4-4--4-4----|


CHORUS
Guitar 1 (played in background very low)
-------------------------------------|
-------------------------------------|
-15-------11-------15-------11-------|
---(x16)----(x16)----(x16)----(x16)--|
-13-------9--------13-------9--------|
-------------------------------------|

--------------------------------------------------------------------|
--------------------------------------------------------------------|
--------------------------------------------------------------------|
--------------------------------------------------------------------|
--3p0-5p0-7p0-8p0-5p0-3p0-7p0-8p0-10p0-8p0-7p0-8p0-5p0-3p0-7p0-5p0--|
--------------------------------------------------------------------|

----------|
----------|
--6-------|
---(x32)--|
--4-------|
----------|

Guitar 2
--------------------------------------|
--------------------------------------|
--3-----------------3-----------------|
--3(x16)---5--------3(x16)---5--------|
--1--------5(x16)---1--------5(x16)---|
-----------5-----------------5--------|

------------------------------|
------------------------------|
--6--------3------------------|
--4(x16)---3(x16)---4---------|
--4--------1--------4(x32)----|
--------------------4---------|


VERSE
Guitar 1 & Guitar 2
-----------------------------------------------|
-----------------------------------------------|
--3-3--3-3--------------3-3--3-3---------------|
--3-3--3-3---4-4--4-4---3-3--3-3---4-4--4-4----| (Repeat x2)
--1-1--1-1---4-4--4-4---1-1--1-1---4-4--4-4----|
-------------4-4--4-4--------------4-4--4-4----|


CHORUS
Guitar 1 (played in background very low)
-------------------------------------|
-------------------------------------|
-15-------11-------15-------11-------|
---(x16)----(x16)----(x16)----(x16)--|
-13-------9--------13-------9--------|
-------------------------------------|

--------------------------------------------------------------------|
--------------------------------------------------------------------|
--------------------------------------------------------------------|
--------------------------------------------------------------------|
--3p0-5p0-7p0-8p0-5p0-3p0-7p0-8p0-10p0-8p0-7p0-8p0-5p0-3p0-7p0-5p0--|
--------------------------------------------------------------------|

----------|
----------|
--6-------|
---(x32)--|
--4-------|
----------|

Guitar 2
--------------------------------------|
--------------------------------------|
--3-----------------3-----------------|
--3(x16)---5--------3(x16)---5--------|
--1--------5(x16)---1--------5(x16)---|
-----------5-----------------5--------|

------------------------------|
------------------------------|
--6--------3------------------|
--4(x16)---3(x16)---4---------|
--4--------1--------4(x32)----|
--------------------4---------|


VERSE
Guitar 1 & Guitar 2
-----------------------------------------------------|
-----------------------------------------------------|
--3-3--3-3--------------3-3--3-3---------------8~b---|
--3-3--3-3---4-4--4-4---3-3--3-3---4-4--4-4----8~b---|
--1-1--1-1---4-4--4-4---1-1--1-1---4-4--4-4----------|
-------------4-4--4-4--------------4-4--4-4----------|


CHORUS
Guitar 1 (played in background very low)
-------------------------------------|
-------------------------------------|
-15-------11-------15-------11-------|
---(x16)----(x16)----(x16)----(x16)--|
-13-------9--------13-------9--------|
-------------------------------------|

-----------------------------------|
-----------------------------------|
--3p0-5p0-6p0-8p0-6p0-5p0-6p0-5p0--|
-----------------------------------| (repeat x2)
-----------------------------------|
-----------------------------------|

--------------------------------------------|
--------------------------------------------|
--3-3-3-3-5-5-5-5-6-6-6-6-8-8-8-8-10(x16)---|
--------------------------------------------|
--------------------------------------------|
--------------------------------------------|

Guitar 2
--------------------------------------|
--------------------------------------|
--3-----------------3-----------------|
--3(x16)---5--------3(x16)---5--------|
--1--------5(x16)---1--------5(x16)---|
-----------5-----------------5--------|

------------------------------|
------------------------------|
--6--------3------------------|
--4(x16)---3(x16)---4---------|
--4--------1--------4(x32)----|
--------------------4---------|


CHORUS
Guitar 1 (played in background very low)
-------------------------------------|
-------------------------------------|
-15-------11-------15-------11-------|
---(x16)----(x16)----(x16)----(x16)--|
-13-------9--------13-------9--------|
-------------------------------------|

--------------------------------------------------------------------|
--------------------------------------------------------------------|
--------------------------------------------------------------------|
--------------------------------------------------------------------|
--3p0-5p0-7p0-8p0-5p0-3p0-7p0-8p0-10p0-8p0-7p0-8p0-5p0-3p0-7p0-5p0--|
--------------------------------------------------------------------|

----------|
----------|
--6-------|
---(x32)--|
--4-------|
----------|

Guitar 2
--------------------------------------|
--------------------------------------|
--3-----------------3-----------------|
--3(x16)---5--------3(x16)---5--------|
--1--------5(x16)---1--------5(x16)---|
-----------5-----------------5--------|

------------------------------|
------------------------------|
--6--------3------------------|
--4(x16)---3(x16)---4---------|
--4--------1--------4(x32)----|
--------------------4---------|


OUTRO
Guitar 1
---------------------|
---------------------|
--11-11-11-11-11-----|
---------------------|
--9--9--9--9--9------|
---------------------|

Guitar 2
---------------------|
---------------------|
---------------------|
--4--4--4--4--4------|
--4--4--4--4--4------|
--4--4--4--4--4------|

Its a cool song to play. I hope this helped you out.

Enjoy =D
            
Hard to play? Try these video lessons and learn fast. | Correct




comments powered by Disqus
↑ Back to top | Tablatures and chords are parodies/interpretations of the original songs. You may use it for private study, scholarship, research or language learning purposes only