>
 >
Girl In Mexico

Girl In Mexico Guitar Tabs

Meriwether - Girl In Mexico chords, tabs, tablatures, lyrics

Guitar lessons | Add/correct | Request | Top 50 tabs Artists:  A B C D E F G H I J K L M N O P Q R S T U V W X Y Z 0-9

Girl In Mexico Guitar Tabs – Meriwether

CD, Sheet music, Poster

Do you like Girl In Mexico? Share with your friends now
Bass TabsTabs
----------------------------------------------------------------------------
----------------------------------------------------------------------------


Tuning:Dropped D

So this song is actually pretty easy except that there are some "different" rythms going 
in the beginning.

Have fun, it's a fun song.

Distortion On.

INTRO (0:00)

1st Gtr.
e|-----------------------------------|
B|-----------------------------------|
G|-8-88-88-88-888888-88-88-88-88888/-|
D|-X-XX-XX-XX-XXXXXX-XX-XX-XX-XXXXX/-|
A|-6-66-66-66-666666-66-66-66-66666/-|
D|-----------------------------------|

2nd Gtr.
e|-----------------------------------|
B|-7-77-77-77-777777-77-77-77-77777--|
G|-----------------------------------|
D|-----------------------------------|
A|-----------------------------------|
D|-----------------------------------|

(0:06)
1st Gtr.
e|-------------------------------|
B|-------------------------------|
G|-16-1616-1616-1616-1616161616--|
D|-X--X-X--X-X--X-X--X-X-X-X-X---|
A|-14-1414-1414-1414-1414141414--|
D|-------------------------------|

(0:09)
1st Gtr.
e|-----------------------------------------------------------|
B|-----------------------------------------------------------|
G|-16-1616-1616-1616-161616161616-1616-1616-1616-1616161616--|
D|-X--X-X--X-X--X-X--X-X-X-X-X-X--X-X--X-X--X-X--X-X-X-X-X---|
A|-14-1414-1414-1414-141414141414-1414-1414-1414-1414141414--|
D|-----------------------------------------------------------|

2nd Gtr.
e|-----------------------------------|
B|-----------------------------------|
G|-8-88-88-88-888888-88-88-88-88888--|
D|-X-XX-XX-XX-XXXXXX-XX-XX-XX-XXXXX--|
A|-6-66-66-66-666666-66-66-66-66666--|
D|-----------------------------------|

(0:15)
1st Gtr.
e|--------------------------|
B|--------------------------|
G|-15-15-15-15-15/16\15-----|
D|-X--X--X--X-----------16--|
A|-13-13-13-13--------------|
D|--------------------------|

(0:18)
1st Gtr.
e|-----------------------------------------------------------|
B|-----------------------------------------------------------|
G|-15-1515-1515-1515-151515151515-1515-1515-1515-1515151515/-|
D|-X--X-X--X-X--X-X--X-X-X-X-X-X--X-X--X-X--X-X--X-X-X-X-X-/-|
A|-13-1313-1313-1313-131313131313-1313-1313-1313-1313131313/-|
D|-----------------------------------------------------------|

2nd Gtr.
e|-----------------------------------|
B|-----------------------------------|
G|-8-88-88-88-888888-88-88-88-88888--|
D|-X-XX-XX-XX-XXXXXX-XX-XX-XX-XXXXX--|
A|-6-66-66-66-666666-66-66-66-66666--|
D|-----------------------------------|

(0:24)
1st Gtr.
e|----------------|
B|----------------|
G|-16-(24 times)--|
D|-X--------------|
A|-14-------------|
D|----------------|

Pre Verse


1st Gtr.              x2
e|--------------------|
B|--------------------|
G|--------------------|
D|-4\2-2-2--2/9999999-|
A|-4\2-2-2--2/9999999-|
D|-4\2-2-2--2/9999999-|

2nd Gtr.     1st time          2nd time
e|---------------------------|---------------------|
B|---------------------------|---------------------|
G|----------9/11111111111111-|----------6-6666-444-|
D|-4\2-2-2--X/X-X-X-X-X-X-X--|-4\2-2-2--X-XXXX-XXX-|
A|-4\2-2-2--7/9-9-9-9-9-9-9--|-4\2-2-2--4/6666\222-|
D|-4\2-2-2-------------------|-4\2-2-2-------------|

(0:34)
1st Gtr.
e|----------------------------|
B|----------------------------|
G|----------------------------|
D|-4\2-2-2--2/99999994\2-2-2--|
A|-4\2-2-2--2/99999994\2-2-2--|
D|-4\2-2-2--2/99999994\2-2-2--|

2nd Gtr.
e|----------------------------------|
B|----------------------------------|
G|----------9/11111111111111--------|
D|-4\2-2-2--X/X-X-X-X-X-X-X-4\2-2-2-|
A|-4\2-2-2--7/9-9-9-9-9-9-9-4\2-2-2-|
D|-4\2-2-2------------------4\2-2-2-|

Distortion off:


1st Gtr.
e|-------------|
B|-------------|
G|-6/8888\444--|
D|-X/XXXX\XXX--|
A|-4/6666\222--|
D|-------------|


VERSE

Destortion on:

"She had her heart..."
Gtr. 1 & 2
e|---------------|
B|---------------|
G|-4-4-4---------|
D|-4-4-4-2-------|
A|-2-2-2-2-------|
D|-------2-------|
   x x x x

CHORUS

"She wrote a letter home..."
1st Gtr.
e|------------------------------------------------------|
B|------------------------------------------------------|
G|-44-44---------------------44-44----------------------|
D|-44-44-2---2-2-------------44-44-2---2-2--------------|
A|-22-22-2---2-2-------------22-22-2---2-2--------------|
D|-------2---2-2-------------------2---2-2--------------|

2nd Gtr.
e|------------------------------------------------------|
B|------------------------------------------------------|
G|-44-44-----6/1111111111111144-44-----6/11111111111111-|
D|-44-44-2---X/X-X-X-X-X-X-X-44-44-2---X/X-X-X-X-X-X-X--|
A|-22-22-2---4/9-9-9-9-9-9-9-22-22-2---4/9-9-9-9-9-9-9--|
D|-------2-------------------------2--------------------|

1st Gtr.                                       "Somewhere Mexico..."
e|------------------------------------------------------------|
B|------------------------------------------------------------|
G|-44-44------------------------------------------------------|
D|-44-44-2---2-2-------------2-2-2-2-2-2-2-2-2-2-2-2-2--------|
A|-22-22-2---2-2-------------2-2-2-2-2-2-2-2-2-2-2-2-2--------|
D|-------2---2-2-------------2-2-2-2-2-2-2-2-2-2-2-2-2--------|
                             x x x x x x x x x x x x x

2nd Gtr.
e|------------------------------------------------------------|
B|------------------------------------------------------------|
G|-44-44-----6/11111111111111---------------------------------|
D|-44-44-2---X/X-X-X-X-X-X-X-2-2-2-2-2-2-2-2-2-2-2-2-2--------|
A|-22-22-2---4/9-9-9-9-9-9-9-2-2-2-2-2-2-2-2-2-2-2-2-2--------|
D|-------2-------------------2-2-2-2-2-2-2-2-2-2-2-2-2--------|
                             x x x x x x x x x x x x x


BRIDGE

1st Gtr.              x16
e|-------------------|
B|-7---7---4---4-----|
G|---6---6---6---6---|
D|-------------------|
A|-------------------|
D|-------------------|


1st Gtr.
e|-------------------|
B|-7---7---4---4-----|
G|---6---6---6---6---|
D|-------------------|
A|-------------------|
D|-------------------|


2nd Gtr.           x4
e|------------------|
B|------------------|
G|-4-4-8-8----------|
D|-4-4-8-8-6-6-2-2--|
A|-2-2-6-6-6-6-2-2--|
D|---------6-6-2-2--|

Outro

1st Gtr.     x8
e|--------|
B|--------|
G|-4-x64--|
D|-X------|
A|-2------|
D|--------|

2nd Gtr.
e|-----------------|
B|-----------------|
G|-----------8-x32-|
D|-----------X-----|
A|-----------6-----|
E|-----------------|

1st Gtr.
e|--------|
B|--------|
G|-16-x16-|
D|-X------|
A|-14-----|
D|--------|

2nd Gtr.
e|-----------------|
B|-----------------|
G|-----------8-x32-|
D|-----------X-----|
A|-----------6-----|
E|-----------------|

1st Gtr.
e|-----------------------------------|
B|-----------------------------------|
G|-15-15-15-15-15/16\15-------16-x32-|
D|-X--X--X--X-----------16----X------|
A|-13-13-13-13----------------14-----|
D|-----------------------------------|
2nd Gtr.
e|----------------------------------|
B|----------------------------------|
G|----------------------------8-x32-|
D|----------------------------X-----|
A|----------------------------6-----|
E|----------------------------------|

|ORDER
|INTRO x1
|PRE VERSE x1
|VERSE x4
|CHORUS x1
|PRE VERSE x1
|VERSE x4
|CHORUS x1
|BRIDGE x1
|OUTRO x1

| /  slide up
| \  slide down
| h  hammer-on
| p  pull-off
| ~  vibrato
| +  harmonic
| x  Mute note
============================================================================





Comments


Popular Meriwether tabs & chords
Girl In Mexico Bass Tabs
Wash Up, We're Having Company Bass Tabs
The Ghost Chords
Aye Julian 2 Tabs
Paper Airplane Machine Tabs
Paper Airplane Machine Intro Tabs
Putting To Sleep A Lion Intro Tabs
Smile Hats Tabs
Smile Hats 1 Tabs
The Ghost Ukulele


Song lyrics



↑ Back to top | Tablatures and chords are parodies/interpretations of the original songs. You may use it for private study, scholarship, research or language learning purposes only
© 2014 AZChords.com Contact us | Privacy policy | DMCA | Add/correct tabs | Request tabs | Top 50 tabs