» » »

Aye Julian Tabs (ver.1)

Artists:  A B C D E F G H I J K L M N O P Q R S T U V W X Y Z # 

Aye Julian Tabs (ver.1)

Meriwether
Rating:
5/5 (3 votes)

Tabs too difficult? Try these video lessons and learn fast.
                Meriwether
Standard Tuning

Wrap your arms around my neck so tight so i can tell what you did and where you were 
night
e|---------------------------------------------------------------------------|
B|---------------------------------------------------------------------------|
G|---------------------------------------------------------------------------|
D|---8------------------------------------4----------------------------------|
A|---8------------------------------------4----------------------------------|
E|---6------------------------------------2----------------------------------|

    I can smell her perfume on my bed
e|---------------------------------------------------------------------------|
B|---------------------------------------------------------------------------|
G|---------6----------5------------------------------------------------------|
D|---------6----------6------------------------------------------------------|
A|---------4----------3------------------------------------------------------|
E|---------------------------------------------------------------------------|


All she wanted was to see the world then she met this boy who fell in love with a girl
e|---------------------------------------------------------------------------|
B|---------------------------------------------------------------------------|
G|---------------------------------------------------------------------------|
D|---8------------------------------------4----------------------------------|
A|---8------------------------------------4----------------------------------|
E|---6------------------------------------2----------------------------------|

 But love      was      not         there     she     said
e|---------------------------------------------------------------------------|
B|---------------------------------------------------------------------------|
G|-6-6-6-6-6-6-6-6-6-6-6-6-6-6-6-6-6-5-5-5-5-5-5-5-5-5-5-5-5-5-5-5-5-5-------|
D|-6-6-6-6-6-6-6-6-6-6-6-6-6-6-6-6-6-6-6-6-6-6-6-6-6-6-6-6-6-6-6-6-6-6-------|
A|-4-4-4-4-4-4-4-4-4-4-4-4-4-4-4-4-4-3-3-3-3-3-3-3-3-3-3-3-3-3-3-3-3-3-------|
E|---------------------------------------------------------------------------|

e|---------------------------------|
B|---------------------------------|
G|---------------------------------|
D|-8-8-8-8-8-8-8-8-8-8-8-8-x-x-x-x-| X3
A|-8-8-8-8-8-8-8-8-8-8-8-8-x-x-x-x-|
E|-6-6-6-6-6-6-6-6-6-6-6-6-x-x-x-x-|

  one   two   three     four
e|---------------------------------|
B|---------------------------------|
G|---------------------------------|
D|-8-8-8-8-8-8-8-8-8-8-8-8-x-x-x-x-|
A|-8-8-8-8-8-8-8-8-8-8-8-8-x-x-x-x-|
E|-6-6-6-6-6-6-6-6-6-6-6-6-x-x-x-x-|

Wrap your arms around my neck so tight so i can tell what you did and where you were 
night
e|------------------------------------------------------------|
B|------------------------------------------------------------|
G|------------------------------------------------------------|
D|-8-8-8-8-8-8-8-8-8-8-8-8-8-8-4-4-4-4-4-4-4-4-4-4-4-4-4-4----|
A|-8-8-8-8-8-8-8-8-8-8-8-8-8-8-4-4-4-4-4-4-4-4-4-4-4-4-4-4----|
E|-6-6-6-6-6-6-6-6-6-6-6-6-6-6-2-2-2-2-2-2-2-2-2-2-2-2-2-2----|

           I can smell her perfume on my bed
e|------------------------------------------------------------|
B|------------------------------------------------------------|
G|-6-6-6-6-6-6-6-6-6-6-6-6-6-6-6-5-5-5-5-5-5-5-5-5-5-5-5-5----|
D|-6-6-6-6-6-6-6-6-6-6-6-6-6-6-6-6-6-6-6-6-6-6-6-6-6-6-6-6----|
A|-4-4-4-4-4-4-4-4-4-4-4-4-4-4-3-3-3-3-3-3-3-3-3-3-3-3-3-3----|
E|------------------------------------------------------------|

All she wanted was to see the world then she met this boy who fell in love with a girl
e|------------------------------------------------------------|
B|------------------------------------------------------------|
G|------------------------------------------------------------|
D|-8-8-8-8-8-8-8-8-8-8-8-8-8-8-4-4-4-4-4-4-4-4-4-4-4-4-4-4----|
A|-8-8-8-8-8-8-8-8-8-8-8-8-8-8-4-4-4-4-4-4-4-4-4-4-4-4-4-4----|
E|-6-6-6-6-6-6-6-6-6-6-6-6-6-6-2-2-2-2-2-2-2-2-2-2-2-2-2-2----|

             But love was not there she said
e|------------------------------------------------------------|
B|------------------------------------------------------------|
G|-6-6-6-6-6-6-6-6-6-6-6-6-6-6-6-5-5-5-5-5-5-5-5-5-5-5-5-5----|
D|-6-6-6-6-6-6-6-6-6-6-6-6-6-6-6-6-6-6-6-6-6-6-6-6-6-6-6-6----|
A|-4-4-4-4-4-4-4-4-4-4-4-4-4-4-3-3-3-3-3-3-3-3-3-3-3-3-3-3----|
E|------------------------------------------------------------|

e|------------------|
B|------------------|
G|------------------|
D|-8-8-8-8-8-8-3/4--|
A|-8-8-8-8-8-8-3/4--|
E|-6-6-6-6-6-6-1/2--|

I wish that I could buy you all the flowers in the world and say I'm sorry o a half a 
times Rarrr!
e|---------------------------------------------------------------------------|
B|---------------------------------------------------------------------------|
G|---------------------------------------------------------------------------|
D|----8---------------------------------------4------------------------------|
A|----8---------------------------------------4------------------------------|
E|----6---------------------------------------2------------------------------|

I wish i could erase the fact that I am not a perfect man I know it sounds like such a 
idea
e|---------------------------------------------------------------------------|
B|---------------------------------------------------------------------------|
G|--6----------5-5-5-5-5-5-5-5-5-5-5-5-5-5-5-5-5-----------------------------|
D|--6----------6-6-6-6-6-6-6-6-6-6-6-6-6-6-6-6-6-----------------------------|
A|--4----------3-3-3-3-3-3-3-3-3-3-3-3-3-3-3-3-3-----------------------------|
E|---------------------------------------------------------------------------|

Wrap your arms around my neck so tight so i can tell what you did and where you were 
night
e|------------------------------------------------------------|
B|------------------------------------------------------------|
G|------------------------------------------------------------|
D|-8-8-8-8-8-8-8-8-8-8-8-8-8-8-4-4-4-4-4-4-4-4-4-4-4-4-4-4----|
A|-8-8-8-8-8-8-8-8-8-8-8-8-8-8-4-4-4-4-4-4-4-4-4-4-4-4-4-4----|
E|-6-6-6-6-6-6-6-6-6-6-6-6-6-6-2-2-2-2-2-2-2-2-2-2-2-2-2-2----|

           I can smell her perfume on my bed
e|------------------------------------------------------------|
B|------------------------------------------------------------|
G|-6-6-6-6-6-6-6-6-6-6-6-6-6-6-6-5-5-5-5-5-5-5-5-5-5-5-5-5----|
D|-6-6-6-6-6-6-6-6-6-6-6-6-6-6-6-6-6-6-6-6-6-6-6-6-6-6-6-6----|
A|-4-4-4-4-4-4-4-4-4-4-4-4-4-4-3-3-3-3-3-3-3-3-3-3-3-3-3-3----|
E|------------------------------------------------------------|

All she wanted was to see the world then she met this boy who fell in love with a girl
e|------------------------------------------------------------|
B|------------------------------------------------------------|
G|------------------------------------------------------------|
D|-8-8-8-8-8-8-8-8-8-8-8-8-8-8-4-4-4-4-4-4-4-4-4-4-4-4-4-4----|
A|-8-8-8-8-8-8-8-8-8-8-8-8-8-8-4-4-4-4-4-4-4-4-4-4-4-4-4-4----|
E|-6-6-6-6-6-6-6-6-6-6-6-6-6-6-2-2-2-2-2-2-2-2-2-2-2-2-2-2----|

             But love was not there she said
e|------------------------------------------------------------|
B|------------------------------------------------------------|
G|-6-6-6-6-6-6-6-6-6-6-6-6-6-6-6-5-5-5-5-5-5-5-5-5-5-5-5-5----|
D|-6-6-6-6-6-6-6-6-6-6-6-6-6-6-6-6-6-6-6-6-6-6-6-6-6-6-6-6----|
A|-4-4-4-4-4-4-4-4-4-4-4-4-4-4-3-3-3-3-3-3-3-3-3-3-3-3-3-3----|
E|------------------------------------------------------------|

Aye Julian! Is this the end of us now? Love will take you away.
e|------------------------------------------------------------------|
B|------------------------------------------------------------------|
G|------------------------------------------------------------------|
D|------------------------------------------------------------------|
A|-8-8-8-8-7-8-8-8-8-7-8-4-4-4-3-4-4-4-4-4-4-4-3-4-4-6-6-6-6-6-6----|
E|-6-6-6-6-5-6-6-6-6-5-6-2-2-2-1-2-2-2-2-2-2-2-1-2-2-4-4-4-4-4-4----|

Aye Julian! Is this the end of us now? Love will take you away.
e|------------------------------------------------------------------|
B|------------------------------------------------------------------|
G|------------------------------------------------------------------|
D|------------------------------------------------------------------|
A|-8-8-8-8-7-8-8-8-8-7-8-4-4-4-3-4-4-4-4-4-4-4-3-4-4-6-6-6-6-6-6----|
E|-6-6-6-6-5-6-6-6-6-5-6-2-2-2-1-2-2-2-2-2-2-2-1-2-2-4-4-4-4-4-4----|

Aye Julian! love love love love love Julian
e|--------------------------|
B|--------------------------|
G|--------------------------|
D|--------------------------|X10
A|-8-11-11-8-11-11----------|
E|-6-9--9--6-9--9-----------|

Wrap your arms around my neck so tight so i can tell what you did and where you were 
night
e|------------------------------------------------------------|
B|------------------------------------------------------------|
G|------------------------------------------------------------|
D|-8-8-8-8-8-8-8-8-8-8-8-8-8-8-4-4-4-4-4-4-4-4-4-4-4-4-4-4----|
A|-8-8-8-8-8-8-8-8-8-8-8-8-8-8-4-4-4-4-4-4-4-4-4-4-4-4-4-4----|
E|-6-6-6-6-6-6-6-6-6-6-6-6-6-6-2-2-2-2-2-2-2-2-2-2-2-2-2-2----|

           I can smell her perfume on my bed
e|------------------------------------------------------------|
B|------------------------------------------------------------|
G|-6-6-6-6-6-6-6-6-6-6-6-6-6-6-6-5-5-5-5-5-5-5-5-5-5-5-5-5----|
D|-6-6-6-6-6-6-6-6-6-6-6-6-6-6-6-6-6-6-6-6-6-6-6-6-6-6-6-6----|
A|-4-4-4-4-4-4-4-4-4-4-4-4-4-4-3-3-3-3-3-3-3-3-3-3-3-3-3-3----|
E|------------------------------------------------------------|

All she wanted was to see the world then she met this boy who fell in love with a girl
e|------------------------------------------------------------|
B|------------------------------------------------------------|
G|------------------------------------------------------------|
D|-8-8-8-8-8-8-8-8-8-8-8-8-8-8-4-4-4-4-4-4-4-4-4-4-4-4-4-4----|
A|-8-8-8-8-8-8-8-8-8-8-8-8-8-8-4-4-4-4-4-4-4-4-4-4-4-4-4-4----|
E|-6-6-6-6-6-6-6-6-6-6-6-6-6-6-2-2-2-2-2-2-2-2-2-2-2-2-2-2----|

             But love was not there she said
e|------------------------------------------------------------|
B|------------------------------------------------------------|
G|-6-6-6-6-6-6-6-6-6-6-6-6-6-6-6-5-5-5-5-5-5-5-5-5-5-5-5-5----|
D|-6-6-6-6-6-6-6-6-6-6-6-6-6-6-6-6-6-6-6-6-6-6-6-6-6-6-6-6----|
A|-4-4-4-4-4-4-4-4-4-4-4-4-4-4-3-3-3-3-3-3-3-3-3-3-3-3-3-3----|
E|------------------------------------------------------------|

Aye Julian!
e|------------------------------------------------------------|
B|------------------------------------------------------------|
G|------------------------------------------------------------|
D|-8-8-8-8-8-8-8-8-8-8-8-8-8-8-4-4-4-4-4-4-4-4-4-4-4-4-4-4----|
A|-8-8-8-8-8-8-8-8-8-8-8-8-8-8-4-4-4-4-4-4-4-4-4-4-4-4-4-4----|
E|-6-6-6-6-6-6-6-6-6-6-6-6-6-6-2-2-2-2-2-2-2-2-2-2-2-2-2-2----|

e|------------------------------------------------------------|
B|------------------------------------------------------------|
G|-6-6-6-6-6-6-6-6-6-6-6-6-6-6-6-5-5-5-5-5-5-5-5-5-5-5-5-5----|
D|-6-6-6-6-6-6-6-6-6-6-6-6-6-6-6-6-6-6-6-6-6-6-6-6-6-6-6-6----|
A|-4-4-4-4-4-4-4-4-4-4-4-4-4-4-3-3-3-3-3-3-3-3-3-3-3-3-3-3----|
E|------------------------------------------------------------|

Julian
e|------------------------------------------------------------|
B|------------------------------------------------------------|
G|------------------------------------------------------------|
D|-8-8-8-8-8-8-8-8-8-8-8-8-8-8-4-4-4-4-4-4-4-4-4-4-4-4-4-4----|
A|-8-8-8-8-8-8-8-8-8-8-8-8-8-8-4-4-4-4-4-4-4-4-4-4-4-4-4-4----|
E|-6-6-6-6-6-6-6-6-6-6-6-6-6-6-2-2-2-2-2-2-2-2-2-2-2-2-2-2----|


e|------------------------------------------------------------|
B|------------------------------------------------------------|
G|-6-6-6-6-6-6-6-6-6-6-6-6-6-6-6-5-5-5-5-5-5-5-5-5-5-5-5-5----|
D|-6-6-6-6-6-6-6-6-6-6-6-6-6-6-6-6-6-6-6-6-6-6-6-6-6-6-6-6----|
A|-4-4-4-4-4-4-4-4-4-4-4-4-4-4-3-3-3-3-3-3-3-3-3-3-3-3-3-3----|
E|------------------------------------------------------------|
            
Tabs too difficult? Try these video lessons and learn fast.




comments powered by Disqus
↑ Back to top | Tablatures and chords are parodies/interpretations of the original songs. You may use it for private study, scholarship, research or language learning purposes only