>
 >
Bitch

Bitch Bass Tabs

Meredith Brooks - Bitch chords, tabs, tablatures, lyrics

Guitar lessons | Add/correct | Request | Top 50 tabs Artists:  A B C D E F G H I J K L M N O P Q R S T U V W X Y Z 0-9

Bitch Bass Tabs – Meredith Brooks

CD, Sheet music, Poster

Do you like Bitch? Share with your friends now
Bass TabsChordsChords v2Chords v3Chords v4Chords v5TabsTabs v2Tabs v3Tabs v4UkuleleUkulele v2
******************************************************
*                                                    *
* Song-Writer (Original): Meredith Brooks            *
*                                                    *
*                                                    *
******************************************************

Intro

G |--------|--------|
D |------2-|0-------|
A |0-------|--------|
E |--------|--------|  2x
   1     4  1

Verse

G |----------|--------|
D |*-------2-|0-------|
A |*-0-------|--------|
E |----------|--------| 
     1     4  1

G |--------|--------|---------|
D |--------|--------|0-------*|
A |--------|2-------|--------*|
E |2-------|--------|---------|
   1        1        1
      
Chorus

G |--------|--------|--------|--------|
D |--------|22222222|--------|00000000|
A |00000000|--------|22222222|--------|
E |--------|--------|--------|--------|
   1+2+3+4+ 1+2+3+4+ 1+2+3+4+ 1+2+3+4+

G |--------|--------|--------|--------|
D |--------|22222222|44444444|00000000|
A |00000000|--------|--------|--------|
E |--------|--------|--------|--------|
   1+2+3+4+ 1+2+3+4+ 1+2+3+4+ 1+2+3+4+

Verse

G |--------|--------|
D |------2-|0-------|
A |0-------|--------|
E |--------|--------| 
     1     4  1

G |--------|--------|--------|
D |--------|--------|0---0000|
A |--------|2-------|--------|
E |2-------|--------|--------|
   1        1        1

Chorus

Solo

G |--------|--------|--------|--------|
D |--------|22222222|44444444|00000000|
A |00000000|--------|--------|--------|
E |--------|--------|--------|--------|
   1+2+3+4+ 1+2+3+4+ 1+2+3+4+ 1+2+3+4+

G |--------|--------|--------|--------|
D |--------|22222222|--------|00000000|
A |00000000|--------|22222222|--------|
E |--------|--------|--------|--------|
   1+2+3+4+ 1+2+3+4+ 1+2+3+4+ 1+2+3+4+

Bridge

G |----------|--------|---------|
D |*-2-------|--------|0-------*|
A |*---------|--------|--------*|
E |----------|2-------|---------|
     1        1        1

Chorus  (2 Times)

Outro (as long as you will play the end of the song)

G |--------|--------|--------|--------|
D |--------|22222222|44444444|00000000|
A |00000000|--------|--------|--------|
E |--------|--------|--------|--------|
   1+2+3+4+ 1+2+3+4+ 1+2+3+4+ 1+2+3+4+





Comments


Popular Meredith Brooks tabs & chords
Bitch Chords
Crazy Chords
I Need Chords
My Little Town Chords
Shatter Chords
Somedays Chords Chords
Im A Bitch Tabs
Birthday Ukulele
I Need Ukulele
Wash My Hands Ukulele


Song lyrics



↑ Back to top | Tablatures and chords are parodies/interpretations of the original songs. You may use it for private study, scholarship, research or language learning purposes only
© 2014 AZChords.com Contact us | Privacy policy | DMCA | Add/correct tabs | Request tabs | Top 50 tabs