» » »

Mercy Me, I Can Only Imagine Tabs (ver.1)

Artists:  A B C D E F G H I J K L M N O P Q R S T U V W X Y Z # 

I Can Only Imagine Tabs (ver.1)

Mercy Me Tabs
 Rating:
4/5 (4 votes)
I Can Only Imagine lessons Tabs too difficult? Try these video lessons and learn fast
                Guys its a piano song. But here's a way to make it sound good on guitar.

Intro Riff
e|---------------------------------]
B|-----------------------------10--]
G|--8-9-----8-9-----8-9-6---8-9----]
D|------9-------9------------------]
A|------------------0-------0------]
E|--0-------0----------------------]

Verse1 (quiet strums, keep it simple)
    E	 A2   E	    A2	  E
E[--0----0----0-----0----0---]
B[--0----0----0-----0----0---]
G[--9----9----9-----9----1---]
D[--9----7----9-----7----2---]
A[--7----0----7-----0----2---]
E[--0---------0----------0---]

Chorus1 (still really quiet)
    A2  Bsus  E	    Emaj7
E[--0----0----0------0-----]
B[--0----0----0------0-----]
G[--2----4----9------8-----]
D[--2----4----9------6-----]
A[--0----2----7------7-----]
E[-------------------------]

Tag
e|-----------------]
B|-----------------]
G|--8-9-----8-9----]
D|------9-------9--]
A|-----------------]
E|--0-------0------]

Verse2 (strum normal)
E[--0-0-0--0-0-0----0-0-0--0-0--0--]
B[--0-0-0--0-0-0----0-0-0--0-0-10--]
G[--8-9-9--8-9-9----8-9-9--8-9--9--]  (4x)
D[--9-9-9--9-9-9----9-9-9--9-9--9--]
A[--7-7-7--7-7-7----0-7-7--0-7--7--]
E[------0------0--------0-------0--]

Chorus2 (strum normal)
    A2  Bsus  E	    Emaj7
E[--0----0----0------0-----]
B[--0----0----0------0-----]
G[--2----4----9------8-----] (3x)
D[--2----4----9------6-----]
A[--0----2----7------7-----]
E[-------------------------]

    A2  Bsus  E	    
E[--0----0----0----]
B[--0----0----0----]
G[--2----4----4----] (1x)
D[--2----4----2----]
A[--0----2----2----]
E[------------0----]

Chorus3 (high-energy, bulding-up strum)
    A2  Bsus  E	    Emaj7
E[--0----0----0------0-----]
B[--0----0----0------0-----]
G[--2----4----9------8-----]  (7x)
D[--2----4----9------6-----]
A[--0----2----7------7-----]
E[------------0------0-----]

    A2  Bsus  C#m
E[--0----0----0----]
B[--0----0----0----]
G[--2----4----6----]  (1x)
D[--2----4----6----]
A[--0----2----4----]
E[-----------------]

Outro Verse
    E	 A2   C#m   E	  A2 Bsus  E
E[--0----0----0-----0----0---0----0--]
B[--0----0----0-----0----0---0----0--]
G[--9----2----6-----9----2---4----1--]
D[--9----2----6-----6----2---4----2--]
A[--7----0----4-----7----0---2----2--]
E[--0-----------------------------0--]

Verse1
I can only imagine what it will be like
When I walk by your side
I can only imagine what my eyes will see
When your face is before me, I can only imagine

Chorus
Surrounded by Your glory, what will my heart feel?
Will I dance for You Jesus or in awe of You be still?
Will I stand in Your presence or to my knees will I fall?
Will I sing hallelujah, will I be able to speak at all?
I can only imagine, I can only imagine

Verse2
I can only imagine when that day comes
And I find myself standing in the Son
I can only imagine
When all I will do is forever, forever worship You
I can only imagine, I can only imagine

Chorus2
Surrounded by Your glory, what will my heart feel?
Will I dance for You Jesus or in awe of You be still?
Will I stand in Your presence or to my knees will I fall?
Will I sing hallelujah, will I be able to speak at all?
I can only imagine, I can only imagine

Chorus3
Surrounded by Your glory, what will my heart feel?
Will I dance for You Jesus or in awe of You be still?
Will I stand in Your presence or to my knees will I fall?
Will I sing hallelujah, will I be able to speak at all?
I can only imagine, I can only imagine, ya-eh-ya
I can only imagine, I can only imagine

Outro Verse
I can only imagine
When all I will do
Is forever, forever worship You
I can only imagine
            
Submit corrections

comments powered by Disqus
↑ Back to top | Mercy Me Tabs for I Can Only Imagine. Lyrics for acoustic guitar and electric guitar. Tablatures and chords are parodies/interpretations of the original songs. You may use it for private study, scholarship, research or language learning purposes only