» » »

House Of God Bass tabs (ver.1)

Artists:  A B C D E F G H I J K L M N O P Q R S T U V W X Y Z # 

House Of God Bass tabs (ver.1)

Mercy Me
Rating:
0/5 (0 votes)

Hard to play? Try these video lessons and learn fast.
                

Tuning:EADG
intro
G|----------------------------------------------------------------------------|
D|----------------------------------------------------------------------------|
A|-----------7-0-5-7--4-0-4-2-------------------------------------------------|
E|-----/0---------------------------------------------------------------------|

verse
G|----------------------------------------------------------------------------|
D|----------------------------------------------------------------------------|
A|-------7-0-5-7--4-2-----7-0-5-7-4-2-2-4-------------------------------------|
E|---0------------------0-----------------------------------------------------|

Chorus
G|----------------------------------------------------------------------------|
D|----------------------------------------------------------------------------|
A|----------------------------------------------------------------------------|
E|-----0-0-0-0-3-3-3-3-2-2-2-2-5-5-5-5-0-0-0-0-3-3-3-3-5-5-5-5-5-5-5-5--------|


2nd verse
G|----------------------------------------------------------------------------|
D|----------------------------------------------------------------------------|
A|-------7--4--5--7--4--5--7--4--2--2--4--------------------------------------|
E|----------------------------------------------------------------------------|
            
Hard to play? Try these video lessons and learn fast. | Correct




comments powered by Disqus
↑ Back to top | Tablatures and chords are parodies/interpretations of the original songs. You may use it for private study, scholarship, research or language learning purposes only